música
Buscador

Acorde de Nómades - La Renga

Letra de Nómades

Intro:



Riff 1

------------------------

------------------------

------------------------

------------------------

-----7-5---5------------

--(0)----7---7-6-5-(0)--



MI SOL LA Riff 1

Salgo a ver, la tormenta está cerca hoy,

MI SOL LA Riff 1

y al partir huelo la sal de la sangre.

MI SOL LA Riff 1

Ya no sé adónde quiere ir mi corazón;

MI SOL LA Riff 2

ya me acordé, voy a olvidarme de todo.



Riff 2

--------------

--------------

--7-7--9-9-9--

--7-7--9-9-9--

--5-5--7-7-7--

--------------



MI DO MI

Uh, ¿A dónde está mi hogar?

DO SI MI

Uh, mi casa se aleja.

DO RE MI

Uh, ¿A dónde va mi hogar?

DO SI MI

Uh, mi casa se aleja.



MI SOL LA Riff 1 *4





Esta vez sólo quiero salir de acá,



http://www.coveralia.com/acordes/nomades-la-renga.php

------------------------------------------

------------------------------------------

------------------------------------------

------------------------------------------ Riff 1

------------------------------------------

--12/-0----------3----------------5-------

sé que morir sigue siendo aún camino.

MI SOL LA Riff 1

Recorreré todo este flujo de sinrazón,

MI SOL LA Riff 2

ya me fijé y nada veo del todo.



MI DO MI

Uh, ¿A dónde está mi hogar?

DO SI MI

Uh, mi casa se aleja.

DO RE MI

Uh, ¿A dónde va mi hogar?

DO SI MI......

Uh, mi casa se aleja.



DO RE MI

DO SI MI

DO RE MI

DO SI MI



-----------------------

--------------------0--

--------------------0--

------------------2-2--

--7-5---5---------2-2--

------7---7-6-5-0-0----





------------------

------------------

------------------

---------------2--

-7-5---5-------2--

-----7---7-6-5-0--

Discos en los que aparece este acorde: Pesados Vestigios

El acorde de Nómades de La Renga es una versión de la canción original realizada por colaboradores/usuarios de Coveralia.

¿Has encontrado algún error en esta página? Envíanos tu corrección del acorde