música
Buscador

Acorde de Nómadas De Amor - Eros Ramazzotti

Letra de Nómadas De Amor





*Capo en el 1er traste

e E G D A E

C - Csus4 - C Csus4 1 1 0 2 3 0



C G Am

No digo nada, amor mío

F C

pero sé bien que tu estás mal

G Am

mientras me hablas pienso que

F C

hemos llegado al final

G F

nuestro final



C G Am

Ya no hay miel en tus palabras

F C

y cada sílaba es amarga

G Am

todo el azúcar que me dabas

F C

ya no nos gusta y empalaga

G Am

en este instante creo que

F C Dm

no tengto nada que decirte que

E E7

no sepas ya



Am

Nomadas de amor

C

como un gran sueño

F Am Dm

que recorre en dunas de ciudad

G G7 F C

corazones libres que ya no tiene dueño

F C G E E7

luchan contra la realidad.



Am

Siempre perseguimos

C

como los nomadas

F Am Dm

un oasis que quizás no hay

G G7

somos esos que

C F

por nada cambiarán

Am G

y tu sabes que esta es



F G Am - G - F

nuestra verdad



C G Am

No digo nada ahora que

F C

has decidido que te vas

http://www.coveralia.com/acordes/nomadas-de-amor-eros-ramazzotti.php

G Am

pero presiento y yo lo se

F C

que no te volveré a ver más

G Am

en este instante creo que

F C Dm

no tengo nada que decirte que

E E7

no sepas ya



Am

Nomadas de amor

C

como un gran sueño

F Am Dm

viajaremos sin querer parar

G G7 F C

como exloradores que sin tener el tiempo

F C G E E7

seguirán el viento, su camino



Am C

Siempre perseguimos como los nomadas

F Am Dm

un oasis que quizás no hay

G G7

somos esos que

C F

por nada cambiarán

Am G

esta es nuestra verdad



Am C

e -------------------------------

B ---------------8-8-------------

G -----7----7/9------7----7/9----

D --10---10------------10-------- sigue

A -------------------------------

E -------------------------------



F Am Dm

------------------------------------------------------

---------------------------------------6p8h6--6p8h6---

--9-7-9-9/10----9/10-7/9----7/9/7----7-7p9h7--7p9h7---

------------------------------------------------------

------------------------------------------------------

------------------------------------------------------



G G7

Simpre perseguidos

F C

como los nomadas

Dm G C F

el oasis que en la mente hay

Am G C G Am F

solo el nos bastará

C

Lo sé.





Letra subida por: Anónimo

Discos en los que aparece este acorde: Calma Aparente

El acorde de Nómadas De Amor de Eros Ramazzotti es una versión de la canción original realizada por colaboradores/usuarios de Coveralia.

¿Has encontrado algún error en esta página? Envíanos tu corrección del acorde