música
Buscador

Acorde de Noche Eterna - Zenobia

Letra de Noche Eterna

Intro: [G#m E F# G#m D#] Bis



|

e|----------|--------7-6----------------7-6---------------

B|----------|----7-------7-9-9-9----7-------7-----9---7---

G|----------|--8---8--------------8---8-------9-9---9---9-

D|-9-8------|---------------------------------------------

A|-----9----|---------------------------------------------

E|----------|---------------------------------------------

|



e|--------7-6-------6/7-6--------7-6--------6----- | ----------

B|----7-------7-7-7 -------7-7-7----7-9-9-9---9-8^ | -8-8-8-8^-

B|--8---8----------------------------------------- } Bis ----------

D|------------------------------------------------ | ----------

A|------------------------------------------------ | ----------

E|------------------------------------------------ | ----------



G#m E

Ya daba éste amor por terminado

C#m B F#

Y tu recuerdo no desapareció

G#m E

Saber que ya no estaba entre tus brazos

F#

No sé por qué





G#m E

Todo éste tiempo he anhelado volver

C#m B F#

Echando en falta los momentos contigo

E G#m

No es como antes ver la noche caer

F#

No aguantaré



[Coro]



G#m E

Has vuelto a romper en mil pedazos

C#m B F#

Las ilusiones pues contigo me engañé

G#m E

Ahora ya no estoy entre tus brazos

F# G#m D#

Pero no te diré que jamás te olvidaré







-------[Música de Intro]-------------



[G#m E F# G#m D#] Bis



|

e|----------|--------7-6----------------7-6--------------*

B|----------|----7-------7-9-9-9----7-------7-----9---7---

G|----------|--8---8--------------8---8-------9-9---9---9-

D|-9-8------|---------------------------------------------

A|-----9----|---------------------------------------------

E|----------|---------------------------------------------

|



http://www.coveralia.com/acordes/noche-eterna-zenobia.php

e|--------7-6-------6/7-6--------7-6--------6----- | ----------

B|----7-------7-7-7 -------7-7-7----7-9-9-9---9-8^ | -8-8-8-8^-

B|--8---8----------------------------------------- } Bis ----------

D|------------------------------------------------ | ----------

A|------------------------------------------------ | ----------

E|------------------------------------------------ | ----------





G#m E

Llega la noche y el rugido del viento

C#m B F#

Voy a salir, de nuevo te buscaré

G#m E

Entre las hienas que alimenten mi lamento

F#

Te encontraré





G#m E

Bajo esos labios que hoy me van a dar su miel

C#m B F#

He conseguido olvidar lo que tú has sido

E G#m

Y sin saberlo otra equivocación

F#

Y hacia ti volveré





[coro]

G#m E

Has vuelto a romper en mil pedazos

C#m B F#

Las ilusiones pues contigo me engañé

G#m E

Ahora ya no estoy entre tus brazos

F# G#m D#

Pero no te diré que jamás te olvidaré



"Solo"<------------------------Aun no lo he sacado, pero pueden

hacer esa parte con las notas del

coro [G#m E C#m B F# G#m E F# G#m D#]Bis



G#m E

Has vuelto a romper en mil pedazos

C#m B F#

Las ilusiones pues contigo me engañé

G#m E

Ahora ya no estoy entre tus brazos

F# G#m D#

Pero no te diré que jamás te olvidaré







G#m E

Has vuelto a romper en mil pedazos

C#m B F#

Las ilusiones pues contigo me engañé

G#m E

Ahora ya no estoy entre tus brazos

F# G#m D#

Pero no te diré que jamás te olvidaré



Letra subida por: Anónimo

Discos en los que aparece este acorde: Luchando Hasta El Final

El acorde de Noche Eterna de Zenobia es una versión de la canción original realizada por colaboradores/usuarios de Coveralia.

¿Has encontrado algún error en esta página? Envíanos tu corrección del acorde