música
Buscador

Acorde de No Te Rindas - Logos

Letra de No Te Rindas

Intro:

e-----------------------------------------------------------------

B-----------------------------------------------------------------

G-----------------------------------------------------------------

D------787-------78------78------75----7------78------7-5---57-7--

A--5555-----5555----5555----5555----8785-5555----5555-5-3-78---5--

E-----------------------------------------------------------------



e------------------------------------------------------

B------------------------------------------------------

G------------------------------------------------------

D-------78------78------75----7------78------7-5---57--

A--5555----5555----5555----8785-5555----5555-5-3-78----

E------------------------------------------------------



e---------------------------------------------------------------------------

B---------------------------------------------------------------------------

G--------------------------------------------------------------------------- r

D--------------------------------------------------------------------------- e

A--9-----9-10-----9-10------97--------5------45-------7-----------------54-- p

E--7-7777-----7777-----7777---10-9-10-3-3333----33333-5-5555555555555555---- i

Vientos y mares... t

(Y aunque el desierto...) e



e---------------------------------------------------------------------------

B--------------------------------------------------------------------------- x

G--------------------------------------------------------------------------- 2

D---------------------------------------------------------------7-----------

A--9-----9-10-------4------45-------5------45----------7--4--5--5-----------

E--7-7777-----77777-2-2222----22222-3-3333----333333---5--2--3--------------



e--------------------------------------------------------------

B--------------------------------------------------------------

G--------------------------------------------------------------

D--9-----------------5------------7----------------------------

A--7-----------------3------------5------7-----4-----9--7--5---

E----------------------------------------5-----2-----7--5--3---

Disparos cruzados...



e--------------------------------------------------------------

B--------------------------------------------------------------

G--------------------------------------------------------------

D-----------------------------------------------11-9-----------

A-------45-------6------67-------7------67-------9-7-----------

G--3333----33333-4-4444----44444-5-5555----55555---------------



e--------------------------------------------------------------

B--------------------------------------------------------------

G--------------------------------------------------------------

D--------------------------------------------------------------

A--9------9-10-9-------7-------9-------9-7--7------------------

G--7-7777--------77777-5-55555-7-77777----10-------------------

No te rindas...



e-------------------------------------------------------------------

B-------------------------------------------------------------------

G-------------------------------------------------------------------

D-------------------------------------------------------------------

A--9-----9-10-----9-10------97--------9-----9-10-------7-------7-9--

E--7-7777-----7777-----7777---10-9-10-7-7777-----77777-5---9-10-----



e---------------------------------------------------------

B---------------------------------------------------------

G---------------------------------------------------------

D---------------------------------------------------------

A--9-----9-10-----9-10------97----------9---4---5---2-----

E--7-7777-----7777-----7777---10-9-10---7---2---3---0-----

No te rindas...



e---------------------------------------------------------

B---------------------------------------------------------

G---------------------------------------------------------

D--------------------------------------------------5-4-2-- x2

A--4---------5---4------2-4-5-4---------5---4------3-2-0--

E--2-222-222-3---2-2222-0-2-3-2-222-222-3---2-2222--------



e------------------------------------------------------------------------

B------------------------------------------------------------------------

G------------------------------------------------------------------------

http://www.coveralia.com/acordes/no-te-rindas-logos.php

D-----------------------------10-9-7-------------------------------------

A--9-------------10-9----------8-7-5-9-------------10-9-----------4-5-7--

E--7-777777777777-8-7-77777777-------7-777777777777-8-7-77777777--2-3-5--



e-----------------------------------------------------------

B-----------------------------------------------------------

G-----------------------------------------------------------

D-----------------------------10-9-7------------------------

A--9-------------10-9----------8-7-5-9-------------10-9-----

E--7-777777777777-8-7-77777777-------7-777777777777-8-7-----





Solo:

e-------------------------------------------------------------------------

B-------------------------------------------------------------------------

G--11-12-11-14-11^12^14--------11-----------------------------------------

D----------------------14-12-14--11-9^10^9-----11-12---------------------- x2

A-----------------------------------------12-14-----12--------------------

E-----------------------------------------------------15-14-15--15^14^12--

la 2da vez es: 15^14^10



e-----------------------------------------------------------

B--15~-14~-12-----------------------------------------------

G------------14-12-14-11----11-12-14-11---------------------

D-----------------------(12)-----------14-12-14--12^11^----- x2

A------------------------------------------------------12---

E-----------------------------------------------------------

la 2da vez es: 12^11^12









(Repite todo el Solo otra vez)

e-----------------------------------------------------|--1ra vez--|-2da--

B-----------------------------------------------------|-----------|------

G-----------------------------------------------------|-----------|------

D-----------------------------------------------------|-----------|------ x2

A--9-------7-------9-------9-7--7---9-----5-----7-----|------7-9--|-5-4--

G--7-77777-5-55555-7-77777----10----7-----3-----5-----|--9-10-----|-3-2--

No te rindas... aunque te sientas morir...



e------------------------------------------------------------------------------

B------------------------------------------------------------------------------

G------------------------------------------------------------------------------

D------------------------------------------------------------------------------

A--5--------------7--------------4--------------5---------------5---2---7---4--

E--3-333333333333-5-555555555555-2-222222222222-3-333333333333--3---0---5---2--

No dejes vencer... Porque...



e--------------------------------------

B--------------------------------------

G--------------------------------------

D--------------------------------------

A--9-----9-10-----9-10------97---------

E--7-7777-----7777-----7777---10-9-10--



e------------------------------------------------------------------------------

B------------------------------------------------------------------------------

G------------------------------------------------------------------------------

D------------------------------------------------------------------------------

A--5--------------7--------------4--------------5---------------5---2---7---4--

E--3-333333333333-5-555555555555-2-222222222222-3-333333333333--3---0---5---2--

Toda la creación... Y pronto...



e--------------------------------------

B--------------------------------------

G--------------------------------------

D-------------------------------------- x4

A--9-----9-10-----9-10------97---------

E--7-7777-----7777-----7777---10-9-10--

No te rindas...



e--------------------------------------

B----------------------------42--------

G--------------5----5----5-----432---4- (algo así)

D--------------33333333333--------5432-

A--9--4--5--2--------------------------

E--7--2--3--0--------------------------

Letra subida por: Anónimo

Discos en los que aparece este acorde: Tercer Acto , A Traves De Los Tiempos , La Industria Del Poder

El acorde de No Te Rindas de Logos es una versión de la canción original realizada por colaboradores/usuarios de Coveralia.

¿Has encontrado algún error en esta página? Envíanos tu corrección del acorde