música
Buscador

Acorde de No Te Preocupes Por Mi - Chayanne

Letra de No Te Preocupes Por Mi

FINTRODUCCION 



E||--------------------------------|--------------------1-----------||

B||--------------------------------|-----------------3-----4--------||

G||-----------------3--1-----------|--1--3--------3-----------------||

D||--1--------1--4--------------4--|--------------------------------||

A||--------------------------------|--------------------------------||

E||--------------------------------|--------------------------------||





D#m

Le pintaste a mi vida

G#m

colores de amor que no conocía

D#m A#

colocaste banderas de tu conquista

a mi geografía



D#m

me entregaste de todo

G#m

me lo quitaste de a poco

D#m A#

loco despecho por poco me echo al vacío

y ahora me río



B A#

Pero no te preocupes por mí

B A#

que Dios se apiade de tí



D#m

Cuando se caiga el cielo

G#m

y pida un deseo a la luna llena

A#

seguro que ella estara llorando

D#m

al ver que te vas



D#m

Cuando se escriba la historia

G#m

de tus memorias

A#

habrá mas penas que glorias

D#m

rompiste mi corazón y otros mas

y ahora te vas



E||----------------------------------------------------1-----------||

B||----------------------------------------------3--------4--------||

G||-----------------3--1----1-----1--3--------3-----3--------------||

D||--1--------1--4-------------4-----------------------------------||

A||----------------------------------------------------------------||

E||----------------------------------------------------------------||





D#m G#m

Inventaste palabras, palabras raras

para enamorarme

D#m A#

me llenaste la mente de musarañas

pero no me engañas



D#m

Yo que de mi te di todo,

G#m

todo lo devuelves roto

D#m A#

loco despecho por poco me echo al vacío

y ahora me río



B A#

Pero no te preocupes por mí

B A#

que Dios se apiade de tí



D#m

Cuando se caiga el cielo

G#m

y pida un deseo a la luna llena

http://www.coveralia.com/acordes/no-te-preocupes-por-mi-chayanne.php

A#

seguro que ella estara llorando

D#m

al ver que te vas



D#m

Cuando se escriba la historia

G#m

de tus memorias

A#

habrá mas penas que glorias

D#m

rompiste mi corazón y otros mas

y ahora te vas



SOLO



F# A#m

F# A#m

Fm A#m

B A#





D#m

Cuando se caiga el cielo

G#m

y pida un deseo a la luna llena

A#

seguro que ella estara llorando

D#m

al ver que te vas



D#m

Cuando se caiga el cielo

G#m

y pida un deseo a la luna llena

A#

seguro que ella estara llorando

D#m

al ver que te vas



D#m

Cuando se escriba la historia

G#m

de tus memorias

A#

habrá mas penas que glorias

D#m

rompiste mi corazón y otros mas

y ahora te vas



B A#

Pero no te preocupes por mi

B A#

que Dios se apiade de ti



D#m

Cuando se caiga el cielo

G#m

y pida un deseo a la luna llena

A#

seguro que ella estara llorando

D#m

al ver que te vas



D#m

Cuando se escriba la historia

G#m

de tus memorias

A#

habrá mas penas que glorias

D#m

rompiste mi corazón y otros mas

y ahora te vas





D#m G#m



A# D#m

rompiste mi corazón

y ahora te vas

Letra subida por: Anónimo

Discos en los que aparece este acorde: Cautivo , Vivo , Vivo , Vivo (Dvd) , No Te Preocupes Por Mi (Cd Single) , Personalidad

El acorde de No Te Preocupes Por Mi de Chayanne es una versión de la canción original realizada por colaboradores/usuarios de Coveralia.

¿Has encontrado algún error en esta página? Envíanos tu corrección del acorde