música
Buscador

Acorde de No Puedo Estar Sin Ti - Moenia

Letra de No Puedo Estar Sin Ti



Intro:

1)

e---------------------------------------------------------------

B----------------------------0-----------------------0-------0--

G-------0--------------0-------0-------4-----4---0-------0------

D-----0---0---0------0---0-----------0---0---------2-------2----

A---2-------2------4-------4-------2-------2---3-------2--------

E-3--------------5---------------3------------------------------

2) 3)

e--------------------------------------------------3------------

B----------------------------0---------------------3------------

G-------0--------------0-------0-------4-----4-----0------------

D-----0---0---0------0---0-----------0---0---------2------------

A---2-------2------4-------4-------2-------2---3---3------------

E-3--------------5---------------3-----------------x------------



(SE SIGUE CON 1) Y CANTANDO)



Aqui estoy

veo la lluvia caer

y parece

que este dia

no termina.



Aqui estoy

preguntándome

hasta cuando podrán

(con 2) Bm-A

estas fotos salvarme

G

Y es que ya no aguanto

A

te extraño

D Bm-A

no puedo estar sin ti

G

Estar esperando

A

me hace daño

D Bm-A

no puedo estar sin ti.

G A D Bm-A

G A D Bm



(otra vez con 1)



Y miro al viento

su caricia llevó

un sentimiento

que me habla pero

no lo entiendo



Ya se que no

('ya se que no')

soy el que tiene la razón

(con 2) Bm-A

pero no puedo aceptarlo.



http://www.coveralia.com/acordes/no-puedo-estar-sin-ti-moenia.php

G

Y es que ya no aguanto

A

te extraño

D Bm-A

no puedo estar sin ti

G

Estar esperando

A

me hace daño

D Bm-A

no puedo estar sin ti.

G

Es que ya no aguanto

A

te extraño

D Bm-

no puedo estar sin ti

A

('no puedo')

G A

Estar esperando me hace daño

D Bm-A

no puedo estar sin ti.

G A D Bm-A

G A D Bm-A

G

Es que ya no aguanto

A

te extraño

D Bm-A

no puedo estar sin ti

G

Estar esperando

A

me hace daño

D Bm-A

no puedo estar sin ti.

G

Es que ya no aguanto

A

te extraño

D Bm-

no puedo estar sin ti

A

('no puedo')

G A

Estar esperando me hace daño

D Bm-A

no puedo estar sin ti.



G

Es que ya no aguanto

te extraño

no puedo estar sin ti

Estar esperando

me hace daño

no puedo estar sin ti.

Letra subida por: Anónimo

Discos en los que aparece este acorde: Moenia , Exitos , En Electrico , Grandes Exitos + Grandes Mixes , Hits Live

El acorde de No Puedo Estar Sin Ti de Moenia es una versión de la canción original realizada por colaboradores/usuarios de Coveralia.

¿Has encontrado algún error en esta página? Envíanos tu corrección del acorde