música
Buscador

Acorde de No Pasa Nada En Esta Ciudad - Riff

0:15

(4 veces)

“No pasa nada en esta ciudad… …no se hasta cuando seguir tratan de…

G|-----------------------------|--------------------------------------

D|-----------------------------|--------------------------------------

A|-----------------------------|--------------------------------------

E|-2-2-0-2-2-2--2--2--0-2-2-2--|-2-2-/7-7-7--7--7--7-7--7--0-7--7--7\-



…cambiar la realidad… …no se si pueda ser como quiera…

G|----------------------------------------------------------

D|----------------------------------------------------------

A|----------------------------------------------------------

E|-2-2-2--2--2--0-2-2-2--2-2-2-2/7-7-7-0-7--7--0-7-7-7--7--7



…no se si lo aguanto mas…

G|-----------------------------

D|-----------------------------

A|-----------------------------

E|-7-9-9-9-0-9--9-9-9-9-9-9-9-9



Repite lo todo lo de arriba 4 veces mas. Despues:



2:53

Repite esto hasta el final

G|-----------------------------|

D|-----------------------------|

A|-----------------------------|

E|-2-2-0-2-2-2--2--2--0-2-2-2--|



Atencion: La afinacion de este tema esta medio semitono mas grave que

http://www.coveralia.com/acordes/no-pasa-nada-en-esta-ciudad-riff.php

la comun (La 440)



/: slide up (“arrastrar” hacia adelante)

\: slide down (“arrastrar hacia atrás)



No pasa nada en esta ciudad (Vitico)



No pasa nada en esta ciudad,

es tan difícil poder decir la verdad,

nadie responde, todo se esconde,

se disimula, nadie se apura.



No se hasta cuándo seguir tratando,

de cambiar la realidad,

no se si pueda ser como quiera,

no se si lo aguanto más.



No pasa nada en esta ciudad,

hay mucha gente en una gran soledad,

todo se sabe, pero se evade,

todo se siente, pero se miente.



No se hasta cuándo seguir tratando,

de cambiar la realidad,

no creo que pueda ser lo quiera,

en esta triste ciudad.



Mientras su musica se siga tocando y escuchando el carpo jamas morira,

vivira eternamente en la memoria de todos.

Letra subida por: Anónimo

Discos en los que aparece este acorde: Madacam 3...2...1...0... , En Accion , Clasico

El acorde de No Pasa Nada En Esta Ciudad de Riff es una versión de la canción original realizada por colaboradores/usuarios de Coveralia.

¿Has encontrado algún error en esta página? Envíanos tu corrección del acorde