música
Buscador

Acorde de No Lloraré Por Ti - Zenobia

Letra de No Lloraré Por Ti



Intro-

G#m E F# G#m

e|------------------------------------------------------------------

B|------------------------------------------------------------------

G|-------4-4^6^4--4--------1--------3---------4-4^6^4--4---4--------

D|-----6---------6-------2--------4--------6-------------6----------

A|---6-----------------2--------4--------6--------------------------

E|-4-----------------0--------2--------4----------------------------



E ?

e|------------------------------------------------------------------

B|-----9------------------------------------------------------------

G|-----9---------4-------------------------------------------------

D|---9---------5---------------------------------------------------

A|-7---------6------------------------------------------------------

E|------------------------------------------------------------------



G#m E F# G#m

e|------------------------------------------------------------------

B|------------------------------------------------------------------

G|-------4-4^6^4--4--------1--------3---------4-4^6^4--4---4--------

D|-----6---------6-------2--------4--------6-------------6----------

A|---6-----------------2--------4--------6--------------------------

E|-4-----------------0--------2--------4----------------------------



E F# F#

e|------------------9--|-14-|---------------------------------------

B|-----9---------11----|-11-|---------------------------------------

G|-----9-------11------|-11-|---------------------------------------

D|---9-------11--------|-11-|---------------------------------------

A|-7-------9-----------|-11-|---------------------------------------

E|---------------------|-9--|---------------------------------------



I.-

G#m E F# G#m E* D#

Hoy no estas tu mi vida ya es otra sin tu luz

G#m E F# G#m E* F#*

oigo expirar el ultimo aliento que me queda

B F# G#m E F# D#

pense que un dia volveria a ver tu alegre corazon

G#m E F# G#m E* D# G#m

hoy sentire tus labios otra vez en mi sueño siempre estas tu

E F# G#m E* F#* B F# G#m

y ya no puedo olvidarte poder dibujar tu sonrisa

E F# G#m E D#

ese gesto de bondad que mi corazon tanto añora





Coro.-

G#m E F# G#m E-F# G#m

no voy a llorar por ti si no vuelves junto a mi

E F# G#m E* D#

no voy a seguir asi queda tanto por vivir





II.-

G#m E F# G#m E* D# G#m

debo de continuar no me importa esperar

http://www.coveralia.com/acordes/no-llorare-por-ti-zenobia.php

E F# G#m E* F#* G#m

se que otro amor vendra y tu hechizo romperá



[G#m-E-F#-G#m-E*-D# G#m-E-F#-E*-E*-F#]





Coro.-



G#m E F# G#m E-F# G#m

no voy a llorar por ti si no vuelves junto a mi

E F# C# A* D#

no voy a seguir asi queda tanto por vivir

G#m E F# G#m E-F# G#m

no voy a llorar por ti si no vuelves junto a mi

E F# C# A* D#

no voy a seguir asi queda tanto por vivir





(Bueno aqui va un solo, pero no soy muy bueno para sacar solos

asi que pondre las notas que corresponden al solo por si quieren

acompañar ;D)



Solo.- [G#m-E-F#-G#m-E*-D# G#m-E-F#-E*-E*-F#-F#]

[G#m-E-F#-G#m-E*-D# G#m-E-F#-E*-E*-F#-D#]



Coro.-



G#m E F# G#m E-F# G#m

no voy a llorar por ti si no vuelves junto a mi

E F# C# A* D#

no voy a seguir asi queda tanto por vivir



G#m E F# G#m

no voy a llorar por ti (no voy a llorar por ti)

E-F# G#m

si no vuelves junto a mi (si no vuelves junto a mi)

E F# C#

no voy a seguir asi (no voy a seguiiiir)

A* D#

queda tanto por vivir



G#m E F# G#m E-F# G#m

no voy a llorar por ti si no vuelves junto a mi

E F# C# A* D# G#m

no voy a seguir asi queda tanto por vivir



--------------------------------------------------------------------



Acordes:



G#m E F# E* D# F#* B A*

e|--4---0---2---7---6---9----2---5

B|--4---0---2---9---8---11---4---5

G|--4---1---3---9---8---11---4---6

D|--6---2---4---9---8---11---4---7

A|--6---2---4---7---6---9----2---7

E|--4---0---2---7---6---9----2---5



Letra subida por: Anónimo

Discos en los que aparece este acorde: Luchando Hasta El Final , Baladas , Baladas (Gold Edition)

El acorde de No Lloraré Por Ti de Zenobia es una versión de la canción original realizada por colaboradores/usuarios de Coveralia.

¿Has encontrado algún error en esta página? Envíanos tu corrección del acorde