música
Buscador

Acorde de No Hay Tregua - Barricada

Letra de No Hay Tregua



E |-----------------------------------------------------------------------|

B |-----------------------------------------------------------------------|

G |--7-7-7-7-7-7-7-7--5---5---5---5----7-7-7-7-7-7-7-7--5---5---5---5-----|

D |--5-5-5-5-5-5-5-5--5-5-5-5-5-5-5-5--5-5-5-5-5-5-5-5--5-5-5-5-5-5-5-5---|

A |-----------------------------------------------------------------------|

E |-----------------------------------------------------------------------|



G G C C D D D

E |-----------------------------------------------------------------------|

B |-----------------------------------------------------------------------|

G |--7-7-7-7-7-7-7-7--5---5---5---5----7-7-7-7-7-7-7-7-7-7-7-7-7-7-7-7----|

D |--5-5-5-5-5-5-5-5--5-5-5-5-5-5-5-5--7-7-7-7-7-7-7-7-7-7-7-7-7-7-7-7----|

A |------------------------------------5-5-5-5-5-5-5-5-5-5-5-5-5-5-5-5----|

E |-----------------------------------------------------------------------|



B B C D D D D D D D D D D D D D D D D

E |-----------------------------------------------------------------------|

B |-----------------------------------------------------------------------|

G |--4-4-4-4-4-4-4-4--5-5-5-5-5-5-5-5--7-7-7-7-7-7-7-7-7-7-7-7-7-7-7-7----|

D |--4-4-4-4-4-4-4-4--5-5-5-5-5-5-5-5--7-7-7-7-7-7-7-7-7-7-7-7-7-7-7-7----|

A |--2-2-2-2-2-2-2-2--3-3-3-3-3-3-3-3--5-5-5-5-5-5-5-5-5-5-5-5-5-5-5-5----|

E |-----------------------------------------------------------------------|



C D B

Es el juego, del gato y el ratón



C D B

tus mejores años, clandestinidad



C D B

no es muy difícil, claudicar



C D B

esto empieza a ser, un laberinto



E E E G G C D

dónde está, la salida





* - Estribillo:

* G D G C

* Estás asustado, tu vida va en ello

http://www.coveralia.com/acordes/no-hay-tregua-barricada.php

*

* G D C

* pero alguien debe tirar del gatillo







G D C G|--7--7-------------------|

Tu infantil sueño de loco D|--5--5--------5---5----5-|

A|---------5--7---7----7---|



G D C B|--6--6-5--5-6--6-5--6-5--|

no hay respuesta demencial G|--5--5-5--5-5--5-5--5-5--|

D|--5--5-5--5-5--5-5--5-5--|



G D C G|--7--7-------------------|

este juego ha terminado D|--5--5--------5---5----5-|

A|---------5--7---7----7---|



G D C

mucho antes de empezar





E |--------------------------------------------------------------------|

B |--------------------------------------------------------------------|

G |--7-7-7-7-7-7-7-7-7-7-7-7-7-7-7-5--7-7-7-7-7-7-7-7-7-7-7-7-7-7-7-5--|

D |--5-5-5-5-5-5-5-5-5-5-5-5-5-5-5-5--5-5-5-5-5-5-5-5-5-5-5-5-5-5-5-5--|

A |--------------------------------------------------------------------|

E |--------------------------------------------------------------------|

2 veces



Anónimo luchador D|-------5--|

A|-3---5----|



nunca tendrán, las armas la razón



pero cuando se aprende, a llorar por algo



también se aprende, a defenderlo.



-Estribillo





Letra subida por: Anónimo

El acorde de No Hay Tregua de Barricada es una versión de la canción original realizada por colaboradores/usuarios de Coveralia.

¿Has encontrado algún error en esta página? Envíanos tu corrección del acorde