música
Buscador

Acorde de No Hay Más - Chayanne

Letra de No Hay Más

Punteo Inicial: 

1-20/15----------20/15-------------------------------13 15-15-15-13-----

2------15/16----------15/16-16/13-13-16-13-15(16)-13.--------------16-13

3-----------10/12-------------------------------------------------------



1--18-15-13----------------------------- 15(16)=Estirar la cuerda

2----------16-13---13-15(16)-13--------- 13 15=Notas Ligadas

3---------------15---------------------- 16/13=Deslizar la nota tr.16



C F C F C C9 C F

Cada domingo yo te veo,por la avenida de Morfeo. No se si pasas por

C F C F C Cdim

pasar,o te encaminas a buscar,las fantasias de tus sueños.

C F C F C C9

Hay otras que desde la acera,me ofrecen mas que sus caderas.

C F C F C F

Pero no hay nadie como tu,ninguna tiene la virtud,de hipnotizar a las

C G

estrellas. Y hoy,que por fin te acercas.

Coro 1:

C F7 C F7 C Edim C9

Te confieso,mi amor,que nunca vi algo mejor.Eres toda ideal.

C9 Gdim C2 Gdim C2 C9

Y no hay mas,ni nadie como tu.



C F C Cdim C F C C9 C

A veces choca tu mirada, con el suspiro que se escapa. Del fondo

F C F C F C

de mi corazon,donde se pierde la razon.Cuando me dices sin palabras,

G

Que tu tambien me esperabas.

http://www.coveralia.com/acordes/no-hay-mas-chayanne.php

Coro 2:

C F7 C F7 C Edim C9

Te declaro mi amor,dime que si por favor.Eres toda ideal.

C9 C F7 C F7

Y no hay mas,ni nadie como tu.Necesito saber,que vas a ser

C Edim C9

mi mujer.Mi principio y final.Y no hay mas ni nadie como tu.

PUNTEO

( Chayanne is in the house///Baby Yeah.Baby.Yeah.You know how to

get bad,baby.Aha.Yeah.C'mon,Baby.Here we go//To the leg,to the

back,to the floor,to the bed.From the Niza,to the moza,to the

weza,to the dirty sad) C9 %%%% Coro 1 %%%% Coro 2 %%%%

C F7 C F7 C Edim C9

Te declaro mi amor,dime que si por favor.Somos tal para cual.

C9

Y no hay mas ni nadie como tu.Y no hay mas ni nadie como tu.

ocultar esta pestaña Defino Acordes:

C9 =X3234X Edim=X7878X Gdim=XX5656

Cdim=X-X-10-11-10-11 C2=8-10-10-9-8-8

PUNTEO: Tappin

1-13-11/13.-11 10 8--8----------------11 8 11 8...-11/13--

2------------------11-8/10----8/10------------------------

3-------------------------8--8----10.---------------------

4--------------------------10-----------------------------



1--11 10 8--8----------------------------

2---------11-8/10----8/10----------------

3----------------8--8----10.-------------

4-----------------10---------------------

Letra subida por: Anónimo

Discos en los que aparece este acorde: Sincero

El acorde de No Hay Más de Chayanne es una versión de la canción original realizada por colaboradores/usuarios de Coveralia.

¿Has encontrado algún error en esta página? Envíanos tu corrección del acorde