música
Buscador

Acorde de No Ha Parado De Llover - Mana

Letra de No Ha Parado De Llover

INTRO:D Bm-G D-A



E-----------------------------------------0----2----0-----

B----3----3----3----3----3------3----3--------------------

G---2----2----2----2----2------2----2----2----2----2------

D---------------------------------------------------------

A---------------------------------------------------------

E---------------------------------------------------------



E----2----2----2----2----2------3----3----0----5---------

B---3----3----3----3----3------3----3----3----3-----------

G---------------------------------------------------------

D---------------------------------------------------------

A---------------------------------------------------------

E---------------------------------------------------------



Repetir 2 veces.





LETRA:



D A

Desde que te perdi

Bm G D A

la luz se ha puesto muy mojada

Bm G D A

mirada triste esta nublada

Bm G D

y en mis ojos no ha parado de llover.





D A

Solo ya sin ti

Bm G D A

me tienes como un perro herido

Bm G D A

me tienes como un ave sin su nido

Bm G D

estoy solo como arena sin su mar.





Bm G A

Quien detendra la lluvia en mi

F#m Bm G D A

oh no no, se me ha inundado el corazon

http://www.coveralia.com/acordes/no-ha-parado-de-llover-mana.php

Bm G A

quien detendra la lluvia en mi

F#m G A D

oh mi amor, solo tu puedes pararla.







Sigue lloviendo,

Bm G

le sigue lloviendo al corazon

D A

dime que diablos voy a hacer

D

Sigue lloviendo

Bm

le sigue lloviendo al corazon

G D

oh no no, y en mis ojos

A D

no ha parado de llover.





D A

No te comprendo

Bm G

no entiendo que paso

D A Bm G

si te di todo, quiza te di de mas.



D A Bm

Dime que falto, dime que sobro

G D A Bm

dime que paso, pero dime algo

G D

pues me estoy muriendo.





Bm

Quien detendra...





Sigue lloviendo...



¿Has encontrado algún error en esta página? Envíanos tu corrección del acorde