música
Buscador

Acorde de No Es Por Ti - Comisario Pantera

////C, Cmaj7////
C
Hoy te has despertado apresurado, con la más certera convicción.
Bb
Es que es demasiado tiempo
         A
estar sentado
Dm                             G
si jamás, si jamás piensa volver.


//C, Cmaj7//

C
Hoy luces un poco descuidado, ya no está de moda la atracción
    Bb
es que fueron tantos
          A
años a tu lado
Dm                             G
que jamás que jamás piensa volver.

C
Hoy te ha abandonado,
      A
dejado solo
Dm
y te ha cambiado
      G
por amor,
Dm               G
ella conoció el amor.


C
Ven y abre los ojos,
A
mira lento sus labios
Dm               G
como hablan llenos de ilusión,
Dm               G
late fuerte el corazón.

C
¡No es por ti!

Guitarra base: Dm - C

e-------------------------------------------------------------
B-----------------------------5---------------------5---------
G-------------4---5---7---7-------5-------7---5---7---7-----5-
D-------5---7------------------------------------- 7----------
A-5---7-------------------------------------------------------
E-------------------------------------------------------------


e--------------------     x6
B---------------8----
G----7-----9---------
D--------------------
A--------------------
E--------------------

Dm                            G
Si jamás, si jamás piensa volver.


C
Hoy te ha abandonado,
A
dejado solo
Dm
y te ha cambiado
       G
por amor,
Dm
ella conoció
      G
el amor.


C
Ven y abre los ojos,
A
mira lento sus labios
Dm               G
como hablan llenos de ilusión,
Dm               G
late fuerte el corazón.

el corazón.

            C      //C- Cmaj7// - C
¡No es por ti!


Letra subida por: Anónimo

Discos en los que aparece este acorde: Club Rodante

El acorde de No Es Por Ti de Comisario Pantera es una versión de la canción original realizada por colaboradores/usuarios de Coveralia.

¿Has encontrado algún error en esta página? Envíanos tu corrección del acorde