música
Buscador

Acorde de Necios - Logos

Letra de Necios

Intro (1)

e|-----------------------------|

B|-----------------------------|X4

G|-----------------------------|

D|-----------------------------|

A|--7-7-7-7--7-7-7--7-7--8--5--|

E|--5-5-5-5--5-5-5--5-5--6--3--|



Intro (2)

e|------5------------3-----------------------------------------|

B|------5------------3-----------------------------------------|X2

G|-------------------------------------------------------------|

D|--7----------------------------------------------------------|

A|--7-7x--0-0-0-0--0----0-0-0--0--7/8\7--10-8-7-8\7\5--/5------|

E|--5-5x--------------------------5/6\5--8--6-5-6\5\3-----6-3--|



x: ahí suena como si sólo apenas apoyara la mano izquierda sobre las cuerdas.





F5# / E5 / D5

Hablando de justicia

F5# *

y de unidad,

F5# / E5 / D5

se convirtieron en

F5# *

profetas,

F5# / E5 / D5

que lloran por su propia

F5# *

libertad

F5# / E5 / D5

y buscan la verdad

F5# *

huyendo de ella.



*:

e|------------------------|

B|------------------------|

G|------------------------|

D|------------------------|

A|--/5-4-2-4--5-4----4-5--|

E|--------------2--0-2-3--|



e|--------------------------------------------------|

B|--------------------------------------------------|X2

G|--------------------------------------------------|

D|---------------------------------7---7------------|

A|--------3------------2------3-3--5-5-5--3---------|

http://www.coveralia.com/acordes/necios-logos.php

E|--5-3-5---5--3-5-3-5---5-3--1-1---------1--1-1-1--|



Creyendo saber adónde ir,

se envanecieron.

Creyendo saber adónde ir,

se hicieron necios.



Como Intro (2)



Construyen dioses a su modo,

esclavos de su autonomía,

superstición, tarot, poder mental,

espiritismo, astrología.





e|--------------------------------------------------|

B|--------------------------------------------------|X2

G|--------------------------------------------------|

D|---------------------------------7---7------------|

A|--------3------------2------3-3--5-5-5--3---------|

E|--5-3-5---5--3-5-3-5---5-3--1-1---------1--1-1-1--|



Creyendo saber adónde ir,

se envanecieron.

Creyendo saber adónde ir,

se hicieron necios.



e|-----------------------|

B|-----------------------|X4

G|-----------------------|

D|--8-----------8--------|

A|--6-8-7--5-5--6-8-4-5--|

E|----6-5--3-3----6-5-3--|





Solo guitarra





Necios...

Necios...

Necios...



e|-----------------------|

B|-----------------------|

G|-----------------------|Sigue así y fade out.

D|--8-----------8--------|

A|--6-8-7--5-5--6-8-4-5--|

E|----6-5--3-3----6-5-3--|

Letra subida por: Anónimo

Discos en los que aparece este acorde: Generacion Mutante , Tercer Acto , A Traves De Los Tiempos

El acorde de Necios de Logos es una versión de la canción original realizada por colaboradores/usuarios de Coveralia.

¿Has encontrado algún error en esta página? Envíanos tu corrección del acorde