m鷖ica
Buscador

Acorde de Nada Que Perder - Angeles Del Infierno

Letra de Nada Que Perder

 Intro

 121,2,3

 E                   C            D         
 Unas cuantas copas de m醩 me tome

 E            C             D            
 Y todo bailaba al son de mis pies

 G                    A             B            C
 As te quiero hablar, no pareces escuchar

 G                 A                   
 Sonr韊 si te vas a otro [lugar] --  
 ||-----------------|-----------------||
 ||-----------------|-----------------||
 ||-----------------|-----------------||
 ||-----------------|-----------------||
 ||-7-----7-----7---|7-----7-----7----||
 ||-9-X-X-9-X-X-9-X-|9-X-X-9-X-X-9----||

                                                                                                                       
                                                 Osea cuando empieza la palabra lugar se toca esto.

 E               C             D
 Dame un cigarro y fuego tambi閚

 E                 C          D
 Cualquier excusa es buena otra vez

 G                       A        G              C
 Me siento junto a ti, de pronto llega el 

 G                     A               
 Y te pregunta 縠ste tipo quien [es]?---   
 ||-----------------|-----------------||
 ||-----------------|-----------------||
 ||-----------------|-----------------||
 ||-----------------|-----------------||
 ||-7-----7-----7---|7-----7-----7----||
 ||-9-X-X-9-X-X-9-X-|9-X-X-9-X-X-9----||
 Coro:

 ||-----------------------|--------------------------|----------------||
 ||-----------------------|--------------------------|----------------||
 ||------------------------|--------------------------|----------------||
 ||-9-9--9---9-9---9--5-5-|-5--5-5--5--7-7---7--7--7-|--7--9-9-9-7-9--||
 ||-7-7--7---7-7--7-7h3-3-|-3--3-3-3-3h5-5---5--5--5-|-5-5h7-7-7-5-7--||
 ||-----------------------|--------------------------|----------------||
     nada que perder        nada  que ganar      solo  una mirada y nada m醩.             [x2]

 1 solo:

 ||-------------------------------||
 ||-------------------------------||
 ||-------------------------------||
 ||-------------------------------||
 ||----------5--------------------||
 ||-5--7--8-----5---8--7-7--8--7--||   (x2)

 E            C            D
 Me lo presentas le caigo muy bien 

 E                     C          D
 Me invita a una copa y a otra despu閟

 G            A       B             C
 Y ella se largo, sin decir adi髎 

 G                A                   
 Dej醤donos solos a los (dos)---
 ||-----------------|-----------------||
 ||-----------------|-----------------||
 ||-----------------|-----------------||
 ||-----------------|-----------------||
 ||-7-----7-----7---|7-----7-----7----||
 ||-9-X-X-9-X-X-9-X-|9-X-X-9-X-X-9----||                                            
 E                      C           D
 M醩 tarde o temprano contigo me lo har 

 E                     C                D
 Se que no eres f醕il pero lo conseguir

 G                   A  B                  C
 Y es que soy as que le voy a hacer

 G                       A
 Hoy me ha salido todo al (reves)---
 ||-----------------|-----------------||
 ||-----------------|-----------------||
 ||-----------------|-----------------||
 ||-----------------|-----------------||
 ||-7-----7-----7---|7-----7-----7----||
 ||-9-X-X-9-X-X-9-X-|9-X-X-9-X-X-9----||
 Coro:

 ||-----------------------|--------------------------|----------------||
 ||-----------------------|--------------------------|----------------||
 ||------------------------|--------------------------|----------------||
 ||-9-9--9---9-9---9--5-5-|-5--5-5--5--7-7---7--7--7-|--7--9-9-9-7-9--||
 ||-7-7--7---7-7--7-7h3-3-|-3--3-3-3-3h5-5---5--5--5-|-5-5h7-7-7-5-7--||
 ||-----------------------|--------------------------|----------------||
     nada que perder        nada  que ganar      solo  una mirada y nada m醩.             [x2]

 2 Solo:

 ||---------------------|-------------------|---------------------||
 ||-17-13------17-13-15-|-15-17-18-17-18-17-|--17-13-----17-13-15-||
 ||-------17------------|-------------------|--------17-----------||
 ||---------------------|-------------------|---------------------||
 ||---------------------|-------------------|---------------------||
 ||---------------------|-------------------|---------------------||

 ||--------------------------|-----------------------15------------||
 ||---------13-15-18-17-(17)-|-17-17-17-15-17-15-13----18-17-18-17-||
 ||-12-14-16-----------------|---------------------16--------------||
 ||--------------------------|-------------------------------------||
 ||--------------------------|-------------------------------------||
 ||--------------------------|-------------------------------------||

 ||-----------------------12-13-15-17-18-19-20-(20)-||
 ||-17-17-17-15-17-15-13----------------------------||
 ||---------------------16--------------------------||
 ||-------------------------------------------------||
 ||-------------------------------------------------||
 ||-------------------------------------------------||

 Termina el solo y continua as:


      E    E F# G   C      C  F# G    D        D   G F# E    E
 ||----------------|---------------|-----------------||
 ||----------------|---------------|-----------------||
 ||----------------|---------------|-----------------||
 ||-9---9-11-12----|----11-12------|----12-11-9- [9]-||
 ||-7---7--9-10-10-|-10--9-10--12--|-12-10--9-7--[7]-||
 ||--------------8-|--8--------10--|-10--------------|| (x2)

 En las dos ultimas cambia el ritmo oigan la m鷖ica y vean como es el ritmo.

     E     E F# G   C     C   F# G    D       D   G F#  E E E C E
 ||----------------|---------------|--------------------||
 ||----------------|---------------|--------------------||
 ||----------------|---------------|--------------------||
 ||-9---9-11-12----|----11-12------|----12-11-9-9-9-7-9-||
 ||-7---7--9-10-10-|-10--9-10--12--|-12-10--9-7-7-7-5-7-||
 ||--------------8-|--8--------10--|-10-----------------||


Letra subida por: An髇imo

Discos en los que aparece este acorde: 666

El acorde de Nada Que Perder de Angeles Del Infierno es una versi髇 de la canci髇 original realizada por colaboradores/usuarios de Coveralia.

縃as encontrado alg鷑 error en esta p醙ina? Env韆nos tu correcci髇 del acorde