música
Buscador

Acorde de Nada En Común - Coda

Letra de Nada En Común

intro (chords....sin todos los rasgeos)



e--0-0----0----0-0----0----0-0---0-0---0-------

B--0-0----0----0-0----0----5-5---0-0---0-------

G--8-8----6----8-8----6----6-6---8-8---1-------

D--9-9----7----9-9----7----6-6---9-9---2-------

A--9-9----7----9-9----7----4-4---9-9---2-------

E--7-7----5----7-7----5----x-x---7-7---0-------





F#m7 A

cada dia suele estar

E

disfrazado de adversidad

F#m7 A

y yo creo sucumbir

E

al embiste de la vida

C#m

necesito encontrar

B

alguien a quien amar

A B C#m

alguien que este feliz de dar



que sea el amor de mi vida

B

mi mejor amiga



mi amante solo mia





E F#m7 A

se que encontrare

B C#m

alguien especial

B A B E

que no tenga nada en comun

F#m7 A

alguien especial

B C#m

que con los demas

B A B E

no tenga nada en comun





F#m7 A

que desborde en la piel

E

la pasion que da una mujer

F#m7 A

y que no pueda ocultar

E

en sus ojos a la niña

C#m

que me quiera escuchar

B

y que al compartir

A B

no deje de sorprenderme

C#m

que sea el amor de mi vida

B

mi mejor amiga



mi amante solo mia





E F#m7 A

se que encontrare

B C#m

alguien especial

B A B E

que no tenga nada en comun

F#m7 A

alguien especial

B C#m

http://www.coveralia.com/acordes/nada-en-comun-coda.php

que con los demas

B A B E

no tenga nada en comun





solo (piano)





C#m

necesito encontrar

B

alguien a quien amar

A B C#m

alguien que este feliz de dar



que sea el amor de mi vida

B

mi mejor amiga



mi amante solo mia





E F#m7 A

se que encontrare

B C#m

alguien especial

B A B E

que no tenga nada en comun

F#m7 A

alguien especial

B C#m

que con los demas

B A B E

no tenga nada en comun





E F#m7 A

se que encontrare

B C#m

alguien especial

B A B E

que no tenga nada en comun

F#m7 A

alguien especial

B C#m

que con los demas

B A B

no tenga nada, nada

A B E

nada en comun uh uh





intro (chords....sin todos los rasgeos)



e--0-0----0----0-0----0----0-0---0-0---0-------

B--0-0----0----0-0----0----5-5---0-0---0-------

G--8-8----6----8-8----6----6-6---8-8---1-------

D--9-9----7----9-9----7----6-6---9-9---2-------

A--9-9----7----9-9----7----4-4---9-9---2-------

E--7-7----5----7-7----5----x-x---7-7---0-------



uh uh uh uh





chords....utilizados



E F#m7 A C#m B

e--0-|--2--|--0--|--0--|--0--|------------

B--0-|--2--|--0--|--5--|--0--|-----------

G--1-|--2--|--6--|--6--|--8--|------------

D--2-|--2--|--7--|--6--|--9--|------------

A--2-|--4--|--7--|--4--|--9--|------------

E--0-|--2--|--5--|--x--|--7--|------------





Letra subida por: Anónimo

Discos en los que aparece este acorde: Veinte Para Las Doce , La Historia

El acorde de Nada En Común de Coda es una versión de la canción original realizada por colaboradores/usuarios de Coveralia.

¿Has encontrado algún error en esta página? Envíanos tu corrección del acorde