música
Buscador

Acorde de Nací Para Esto - Gustavo Cerati

Letra de Nací Para Esto

INTRO:    Mi - La - Sol - Re (repite 3 veces, y la ultima 

vez termina en un Re con efecto)





Re con efecto

e----2--------2---2-------2---2-----------------------------

B----3--------3---2-------2---0-----------------------------

G--- 2--------2---2-------2---2-----------------------------

D-----------------------------------------------------------

A-----------------------------------------------------------

E-----------------------------------------------------------



Re Resus4 Lam

Mmmm....... pensándolo bien

Re Resus4 Lam

sé que siempre supe el desenlace

Re Resus4 Lam

me pasé la vida imaginándote

Re Resus4 Lam

no es momento para ser cobarde





Sim Lam

Pasaré mis manos

Sim Lam

sanaré toda llaga de distancia

Sim Lam Re

lo terrible del mar es morir de sed





Lam

La lluvia cae

Re Lam

cambia los paisajes de humo y viento

Re Lam

http://www.coveralia.com/acordes/naci-para-esto-gustavo-cerati.php

borro el viejo mapa de catástrofes

Re Lam

Nuestros besos suenan verdaderos





La Mim La Mim

Aún te sorprende, el ruido del mundo

La Mim La Mim Re(con efecto)

Desaparece, ya no hay vacío.





Solo de guitarra (repite 3 veces)



e---12--10--7--10--9--7--5--3--2--0---------

B------------------------------------3------

G-------------------------------------------

D-------------------------------------------

A-------------------------------------------

E-------------------------------------------





Mi La Sol Re Mi

Yo seguí a la estrella más voraz

La Sol Re

nunca me llevó tan lejos

Mi La Sol Re Mi

¿Para qué creer en el azar?

La Sol Re Mi

Yo nací para esto

La Sol Re Mi

Yo nací para esto

La Sol Re Mi Re(con efecto)

Yo nací para esto

Discos en los que aparece este acorde: Siempre Es Hoy , Infinito

El acorde de Nací Para Esto de Gustavo Cerati es una versión de la canción original realizada por colaboradores/usuarios de Coveralia.

¿Has encontrado algún error en esta página? Envíanos tu corrección del acorde