música
Buscador

Acorde de My Immortal - Evanescence

Letra de My Immortal

Intro e Versos



A C#m A9 C#m

E|-|----------------|----------------|----------------|----------------|-|

B|-|---------2------|---------2------|---------0------|---------2------|-|

G|-|-----2-------2--|-----1----------|-----2-------2--|-----1----------|-|

D|-|---2---2---2---2|---2---2--------|---2---2---2---2|---2---2--------|-|

A|-|-0--------------|-4--------------|-0--------------|-4--------------|-|

e|-|----------------|----------------|----------------|----------------|-|





A C#m

i'm so tired of being here

A9 C#m

suppressed by all of my childish fears

A

and if you have to leave

C#m

i wish that you would just leave

A9 C#m

because your presence still lingers here

F#m

and it won't leave me alone



C#m F#m

these wounds won't seem to heal

C#m F#m

this pain is just too real

C#m E

there's just too much that time cannot erase



F#m D E C#m

when you cried i'd wipe away all of your tears

F#m D E C#m

when you'd scream i'd fight away all of your fears

F#m D E C#m

and i've held your hand through all of these years

F#m D E A Amaj7 A9 Amaj7

but you still have all of me





G|-|--2-1-----------|-|

D|-|------4-2-------|-| Final do refrao, riff do piano

A|-|----------0-----|-|





Verse2:

http://www.coveralia.com/acordes/my-immortal-evanescence.php



A

you used to captivate me

Amaj7

by your resonating light

A9 Amaj7

but now i'm bound by the life you left behind

A Amaj7

your face it haunts my once pleasant dreams

A Amaj7 F#m

your voice it chased away all the sanity in me



C#m F#m

these wounds won't seem to heal

C#m F#m

this pain is just too real

C#m E

there's just too much that time cannot erase



Repeat Chorus



D F#m E/G# D6

i've tried so hard to tell myself that you're gone

Bm C#m

but though you're still with me

D E F#m D E C#m F#m D E C#m

i've been alone all along



Chorus



A Amaj7 A9 Amaj7

E|-|----------------|----------------|----------------|----------------|-|

B|-|---------2------|---------2------|---------0------|---------2------|-|

G|-|-----2-------2--|-----1----------|-----2-------2--|-----1----------|-|

D|-|---2---2---2---2|---2---2--------|---2---2---2---2|---2---2--------|-|

A|-|-0--------------|-4--------------|-0--------------|-4--------------|-|

e|-|----------------|----------------|----------------|----------------|-|



A Amaj7 A9 Amaj7 A

E|-|--------------------|----------------|------------------|------------------------|-|

B|-|-----------14-------|---------14-----|----------12------|---------14--12---------|-|

G|-|-------14-------14--|-----13---------|------14------14--|-----13-----------------|-|

D|-|----14---14--14---14|---14--14-------|---14---14--14--14|---14--14--14--14-----7-|-|

A|-|-12-----------------|----------------|-12---------------|---------------------7--|-|

e|-|--------------------|-16-------------|------------------|-16-----------------5---|-|

Letra subida por: Anónimo

El acorde de My Immortal de Evanescence es una versión de la canción original realizada por colaboradores/usuarios de Coveralia.

¿Has encontrado algún error en esta página? Envíanos tu corrección del acorde