música
Buscador

Acorde de Mundo Enfermo - Horcas

Letra de Mundo Enfermo

Intro:

1|---------------------------|

2|---------------------------|

3|---------------------------|

4|--5--3--0--1---5--3--0--1--|



Riff 1: Bajo la fuerza...

1|---------------------------------------------------|

2|---------------------------------------------------|

3|---------------------------------------------------|

4|-3-0--0-0-0--5-0--0-0-0--3-0--0-0-0--0-0-0--1-2-3--|



Riff 2: La vida me envenena...

1|-----------------------------------------|

2|-----------------------------------------|

3|-----------------------------------------|

4|-3-2-0-0--6-5-0-0--3-2-0-0--0-0-0-0-0-0--|



Riff 3: (DURANTE EL SOLO)

1|----------------------------------------------------------------------------------------|

2|----------------------------------------------------------------------------------------|

3|----------------------------------------------------------------------------------------|

4|-5-5-5-5-5-5-5-5-5-5-5-5-5-5-5--6-6-6-6-6-6-6-6-6-6-6-6-6-6-6--7-7-7-7-7-7-7-7-7-7-7-7--|



1|----------------------------------|

2|----------------------------------|

3|---------------------------7-7-7--|

4|-3-2-0-0--6-5-0-0--3-2-0-0--------|

http://www.coveralia.com/acordes/mundo-enfermo-horcas.php



1|-----------------------------------------|

2|-----------------------------------------|

3|-----------------------------------------|

4|-3-2-0-0--6-5-0-0--3-2-0-0--0-0-0-0-0-0--|



Riff 3: No hay pasado...

1|-----|---|-----|---|-----|---|---------------|

2|-----|---|-----|---|-----|---|---------------|

3|-----|x15|-----|x15|-----|x15|---------------|

4|--5--|---|--3--|---|--0--|---|--1-0-1-0-1-0--|



Final:

1|----------------------------------------------|

2|----------------------------------------------|

3|----------------------------------------------|

4|-3-2-0-0--6-5-0-0--3-2-0-0--0-0-0-0-0-0--1-2-3|



1|---------------------------|

2|---------------------------|

3|---------------------------|

4|--5--3--0--1---5--3--0--1--|



Nota: Esta transcripción es de LATO

el bajista de mi banda es una masa el cavon

(suena polenta el tema si se toca sin pua)

Letra subida por: Anónimo

Discos en los que aparece este acorde: Vence

El acorde de Mundo Enfermo de Horcas es una versión de la canción original realizada por colaboradores/usuarios de Coveralia.

¿Has encontrado algún error en esta página? Envíanos tu corrección del acorde