música
Buscador

Acorde de Mujer De Pedro - Chayanne

Letra de Mujer De Pedro

Intro: F9 F F9 F C9/4 C F6 C 



F9 F F9 F C9/4 C F6 C F9 F

Y Pedro llega tarde una vez mas, y e lla se despierta.Se hace que duerme

F9 F C9/4 C F6 C Dm7/G F6

y el le habla igual, al go que invento en el bar.Y ella sabe de historias

F5 C5

Si tuviera un peso por cada desilusion.

C C9/4 C F

Y cuantas maña nas,puedes enfrentar,puedes olvidar.

C C9/4 C F F#4

Cuantas prome sas,puedes ignorar,antes de cortar

C C9/4 F6 C6 F9 F C9/4 C

Esas cadenas que hay en tu co ra zon.



F9 F F9 F C9/4 C F6 C F9 F

Dias,semanas,meses y años que pe san (decia).Pero esta noche Pedro

F9 F C9/4 C F6 C Dm7/G F6

encontrara su ca ma vaci a.Y en un tren,ya tan lejos,

F5 C5

Se encuentra una mujer,su bolso y un ayer.

C C9/4 C F

Y cuantas maña nas,puedes enfrentar,puedes olvidar.

C C9/4 C F F#4

Cuantas prome sas,puedes ignorar,alla en otro lugar,

C C9/4 F6 C6 G6 A

http://www.coveralia.com/acordes/mujer-de-pedro-chayanne.php

porque aprendiste que hay en tu co ra zon. (PUNTEO)

D D9/4 D G

Cuanta maña nas,puedes despertar y nada que olvidar.

D D9/4 D G G#4

Cuantas prome sas,te puedes regalar,alla en otro lugar,

D D9/4 G6 D G9 G D9/4 D

Porque aprendiste lo que es el co ra zon.

G9 G G9 G D9/4 D G6 D

Y pedro llega tarde,una vez mas.Oh Oh Oh Oh (repite esto)



PUNTEO:

1------------------7-9-10-12-14-15/17-15-14+15+14--12-12/14--------------

2------------7-8-10----------------------------------------10-10-10/12---

3-------6-7-9------------------------------------------------------------

4----7-9-----------------------------------------------------------------

5-7-9--------------------------------------------------------------------

6------------------------------------------------------------------------



1---------14-10-10-12-7-7-10-7-7-9---------------------------------------

2-10+12+10------------------------10-10-12-9-9-10-7-7-8-7----------------

3--------------------------------------------------------9-7-------------

4------------------------------------------------------------------------

5------------------------------------------------------------------------

6------------------------------------------------------------------------

Letra subida por: Anónimo

Discos en los que aparece este acorde: Sincero

El acorde de Mujer De Pedro de Chayanne es una versión de la canción original realizada por colaboradores/usuarios de Coveralia.

¿Has encontrado algún error en esta página? Envíanos tu corrección del acorde