música
Buscador

Acorde de Mujer Amiga Mia - Eros Ramazzotti

Letra de Mujer Amiga Mia

 INTRO:

Bm A G A Bm A G Asus A

e-----------------------------------------------------------

B---5-7-5--------------5-------5-7-5--------------5---------

G--7-----7-6-7-7-4-7--7-7-6---7-----7-6-7-7-4-7--7----5/6---

D---------------7-5------------------------7-5--------------

A-----------------------------------------------------------

E-----------------------------------------------------------





Bm

En mi mente estás,



D

es bello pensar



G D

que todo tu amor



A

sabes entregar.



Bm D

Es bello también



G D

como vives tú,



Em A

tan segura que



Bm D

no habrá vuelta atrás.



G

Mujer del mañana,



A Gb/E Bm

el mundo tú tendrás.



Bm D

Un guerrero que



G D

no se rendirá.



Em A

Vencerás porque



Bm D

sabes dónde estás.



G

Mujer del mañana,



A Gb/E Bm D

el mundo tú tendrás



G

entre tus manos



F#

el mundo cambiará.



D G

Se parecerá a ti,



D G

bello reflejo de ti,



Bm A G A

crearás tu obra maestra de fantasía



D G

caminará, lo sé,



D G

contigo el mundo porque



Bm Gb/E Asus E7 G

seguirá tu paso justo en la nueva vía,



F#

mujer amiga mía.





Bm A G Asus A

e-------------------------------

B---5-7-5--------------5--------

G--7-----7-6-7-7-4-7--7----5/6--

D---------------7-5-------------

A-------------------------------

E-------------------------------



http://www.coveralia.com/acordes/mujer-amiga-mia-eros-ramazzotti.php

SUBE 1/2 TONO:



Cm

En mi mente estás,



D#

yo te seguiré,



G# D#

sabes lo que hacer,



A#

sabes dónde vas.



Cm D#

Sensibilidad



G# D#

y genialidad,



Fm A#

cuántas cosas que



Cm D#

reconozco en ti.



G#

Mujer del mañana,



A# Gb/E# Cm D#

el mundo tú tendrás



G#

entre tus manos



G

el mundo cambiará.



D# G#

Se parecerá a ti,



D# G#

bello reflejo de ti,



Cm A# G# A#

crearás tu obra maestra de fantasía;



D# G#

caminará, lo sé,



D# G#

contigo el mundo porque



Cm Gb/E# Asus# F7 G#

seguirá tu paso justo en la nueva vía,



G

mujer amiga mía.



D# G# D# G# Cm A# G# A#

e------3--3-3--------3-3-3--------6-6-6-6-----8-6-------------

B--4-6-4--4-4-6-4-4--4-4-4-6-4-4--8-8-8-8-4-4---8-3-3--4/6\4--

G--5-7--------7-5-5--------7-5-5----------5-5-8---3-3--5/7\5--

D-------------------------------------------------------------

A-------------------------------------------------------------

E-------------------------------------------------------------





D# G#

caminará, lo sé,



D# G#

contigo el mundo porque



Cm Gb/E# Asus# F7 G#

seguirá tu paso justo en la nueva vía,



G

mujer amiga mía.





Cm - Asus4/G# - A# - D#





CUERDAS E A D G B e

Gb/E x x 4 3 2 0

Asus 0 0 2 2 3 0

Gb/E# x x 5 4 3 1

Asus# 1 1 3 3 4 1

Asus4/G# x 1 3 1 4 1





Letra subida por: Anónimo

Discos en los que aparece este acorde: Estilo Libre

El acorde de Mujer Amiga Mia de Eros Ramazzotti es una versión de la canción original realizada por colaboradores/usuarios de Coveralia.

¿Has encontrado algún error en esta página? Envíanos tu corrección del acorde