música
Buscador

Acorde de Muerte Sin Gloria - Logos

Letra de Muerte Sin Gloria

Intro:

e|-------------------------------------------------------------------|

B|-------------------------------------------------------------------|X2

G|-------------------------------------------------------------------|

D|--------------------------------------------------------0----------|

A|------3-2--5-4-3--------3-2-/8---5------3-2--5-4-3--1-2---1-2---0--|

E|--0-0-1-0--3-2-1--0-0-0-1-0-/6-0-3--0-0-1-0--3-2-1------------3----|



(F se puede ligar con Em y queda bien)



Intro como base



Esa noche quise

detenerme

a meditar cosas sin

resolver.

Poder entender

lo que la razón

no puede explicar es

poder entender



e|----------------------------|

B|----------------------------|

G|----------------------------|

D|----------5-4----------4-5--|

A|--3--3-3--3-2--3--3-3--2-3--|

E|--1--1-1-------1--1-1-------|



el lógico instante

de quien decidió perecer,



anulándose,

suicidándose,

perpetuando lo que no

pudo ser.

Puder entender

lo que la razón

no puede juzgar es

poder entender

el ciego misterio

que encierra el destino,



Am / C / E / F / G



seduciéndolo a partir



Am / C / E / F / G

http://www.coveralia.com/acordes/muerte-sin-gloria-logos.php



a una muerte sin gloria.



Am / C / E / F / G



Sueños de inmortalidad



Am / C / E / F / G



que culminan



en un bronce.



e|------------------------------|

B|------------------------------|

G|------------------------------|

D|----------10-9---9-10---10-9--|

A|--8-------8--7---7-8----8--7--|

E|--6--6-6-------6------6-------|





Solo guitarra



Esa noche quise

detenerme

a meditar cosas sin

resolver.

Poder entender

lo que la razón

no puede explicar es

poder entender

el ciego misterio

que encierra el destino,

seduciéndolo a partir

a una muerte sin gloria.

Sueños de inmortalidad

que culminan

en un bronce.



seduciéndolo a partir

a una muerte sin gloria.

Sueños de inmortalidad

que culminan

en un bronce.



Fin: continua y fade out.

Letra subida por: Anónimo

Discos en los que aparece este acorde: Generacion Mutante , Tercer Acto , A Traves De Los Tiempos

El acorde de Muerte Sin Gloria de Logos es una versión de la canción original realizada por colaboradores/usuarios de Coveralia.

¿Has encontrado algún error en esta página? Envíanos tu corrección del acorde