música
Buscador

Acorde de Mucho Por Hacer - Riff

                    (2 vueltas)

G|----------------------------------------------------| Parte

D|----5-4-5--------5-5-4-5-7---5-4-5----------5-4-5---| A

A|-0-0-0----0-0-0-0---------0-0-0----0-0-0-0-0--------|

E|----------------------------------------------------|



(4 veces)

“A veces supe que iba…

G|--------------------------| Parte

D|--------------------------| B

A|--------------------------|

E|-5--5--5-5--5--5--5-3-4-5-|



Repite parte A, B y A. Despues:

\

G|---------------------------------------------- |

D|---------------------------------------------- |

A|---------------------------------------------- |

E|-3---3---3---3---3--3-5-5-5-5-5-5-5-5-5-5-5-5- | Parte

| C

G|---------------------------------------------- |

D|---------------------------------------------- |

A|----------------------5-5-5-5-5-5-5-5-5-5-5-5- |

E|-3---3---3---3---3--3------------------------- |

/

http://www.coveralia.com/acordes/mucho-por-hacer-riff.php



Repite parte A. Despues:

Durante el solo repite parte B, A , C, y A. Despues:

Repite parte B, A

Y termina con parte A hasta el final



Mucho por hacer (Vitico)



A veces supe que iba a perder,

sin saber bien, cómo ni por qué;

a veces dije esto no lo voy a hacer,

y siempre lo hice, nunca sin querer.



A veces te he mentido y otras veces he sido,

lo que no hubiera querido ser;

más por todo lo que he visto, es por eso que insisto,

en que me queda mucho por hacer.



Mucho por hacer, queda, queda mucho por hacer,

mucho por hacer, queda, queda mucho por hacer.



Mientras su musica se siga tocando y escuchando el carpo

jamas morira, vivira eternamente en la memoria de todos.

Letra subida por: Anónimo

Discos en los que aparece este acorde: En Vivo En Obras 17/12/1985 , Ruedas De Metal , En Accion , Clasico

El acorde de Mucho Por Hacer de Riff es una versión de la canción original realizada por colaboradores/usuarios de Coveralia.

¿Has encontrado algún error en esta página? Envíanos tu corrección del acorde