música
Buscador

Acorde de Morir Tres Veces - Moenia

Letra de Morir Tres Veces



Intro



E|-------------------------------------------------

B|-------------------------------------------------

G|---10--9------10--9------10--9-----10--9---------

D|--------10---------10---------10--------10-------

A|-------------------------------------------------

E|-------------------------------------------------







E|--------------------------------------------------

B|--------------------------------------------------

G|-----10-10-10----10-10-10----10-10-10----10-10-10-

D|---10----------10----------10----------10---------

A|--------------------------------------------------

E|--------------------------------------------------



Bb C

Que ya no quieres ni una noche más,

F Bb

que esta novela ya llegó al final,

Bb C

ahora que no hay nada que esconder

F Bb

se te ha ocurrido no quererme ver





Bb C

Que ya ni al caso otra oportunidad,

F Bb

que a ti volver no se te da,

Bb C

ahora que te has clavado en mí

F

ahora que sólo quiero ir por ti





Bb C

Me dices que ya no,

FA Bb

que se me pasará,

Bb C

que lo que te hice yo

F

fue más que lastimar





Bb C Dm

Y hoy te dejo con las tardes que te robe

http://www.coveralia.com/acordes/morir-tres-veces-moenia.php

C Bb C Dm C

con tu cuerpo atrapándome para dejarme ir

Bb C Dm

te dejo con ese cansancio que viene de

C Bb C Dm C

morir tres veces amándote para revivir





Bb C

Que ya ni al caso otra oportunidad,

F Bb

que a ti volver no se te da,

Bb C

ahora que te has clavado en mí

F

ahora que sólo quiero ir por ti





Bb C

Me dices que ya no,

FA Bb

que se me pasará,

Bb C

que lo que te hice yo

F

fue más que lastimar





Bb C Dm

Y hoy te dejo con las tardes que te robe

C Bb C Dm C

con tu cuerpo atrapándome para dejarme ir

Bb C Dm

te dejo con ese cansancio que viene de

C Bb C Dm C

morir tres veces amándote para revivir





Bb C Dm

Te dejo con el tiempo que nos faltó

C Bb

y todo eso que no pasó

C Dm C

eso me quedo yo.

Bb C Dm C

Uo,oo Uo,oo Uo,oo El tiempo que nos faltó

Bb C Dm C

Uo,oo Uo,oo eso me quedo yo.

Bb C Dm

Uo,oo Uo,oo Uo,oo El tiempo que nos faltó.

Letra subida por: Anónimo

Discos en los que aparece este acorde: Morir Tres Veces (Cd Single) , Fm

El acorde de Morir Tres Veces de Moenia es una versión de la canción original realizada por colaboradores/usuarios de Coveralia.

¿Has encontrado algún error en esta página? Envíanos tu corrección del acorde