música
Buscador

Acorde de More Than We Know - Alicia Keys

Letra de More Than We Know

[Intro]

F# F# G G#m G#m G#m Am A#m

e|---2---------2---------3--------4-----|-------4---------4-------5-------6----|

B|---2---------2---------3--------4-----|-------4---------4-------5-------6----|

G|---3---------3---------4--------5-----|-------4---------4-------5-------6----|

D|---4---------4---------5--------6-----|-------6---------6-------7-------8----|

A|---4---------4---------5--------6-----|-------6---------6-------7-------8----|

E|---x---------x---------x--------x-----|-------x---------x-------x-------x----|



A#m Am G#m G#m G#m C#

e|---6---------5---------4--------------|-------4---------4-------4------------|

B|---6---------5---------4--------------|-------4---------4-------6------------|

G|---6---------5---------4--------------|-------4---------4-------6------------|

D|---8---------7---------6--------------|-------6---------6-------6------------|

A|---8---------7---------6--------------|-------6---------6-------4------------|

E|---x---------x---------x--------------|-------x---------x-------x------------|





[Verse]

F# F# G G#m

If I could breathe underwater

G#m G#m Am A#m

Every fish would walk on land

A#m Am G#m G#m C#

If I could fly in the sky baby

C# C# F#

Then wings would be on me

F# F# G G#m

If words could move mountains

G#m G#m Am A#m

If I could swim the ocean without drownin'

A#m Am G#m G#m C#

If there was pain without hurtin'

C# C#

Then the impossible has been found





[Chorus]

F# F# G G#m G#m

'Cause baby we can do more than we know, more than we know

G#m Am A#m A#m Am G#m G#m C# C#

And baby, baby, oh, there's more than we know, more than we know



C# F#





[Verse]

F#

Yeah, yeah, if I could moonwalk on the moon

F# G G#m

I would glide to you baby

G#m

I'd go to war like a platoon

G#m Am A#m

I'd be right there on the front lines

A#m Am G#m G#m C#

No broken promises in the Promised Land

C# C#

Let's let freedom set us free again





[Chorus]

F# F# G G#m G#m

'Cause baby we can do more than we know, more than we know

G#m Am A#m A#m Am G#m G#m C# C#

And baby, baby, oh, there's more than we know, more than we know

http://www.coveralia.com/acordes/more-than-we-know-alicia-keys.php



C# B





[Bridge]



Uh, yeah, uh

B B A#m G#m

See if we just stayed on the ground

G#m A#m

Then we would never see the stars

A#m B

And if you're too afraid to walk in faith

C#

Then you will never know your heart

B B A#m G#m

And if we just stayed on the corner

G#m A#m

Then we would never see the world

A#m A#m

'Cause baby there's no fate that you can't create





[Chorus]

F# F# G G#m G#m

'Cause baby we can do more than we know, more than we know

G#m Am A#m A#m Am G#m G#m C# C#

And baby, baby, oh, there's more than we know, more than we know

(Yeah darlin')

G#m Am A#m A#m Am G#m G#m C# C#

'Cause baby, baby, oh, there's more than we know, more than we know





[Outro]

F#

If we can believe baby

F#

Do you believe it baby

F# G G#m

Do you believe in me darlin'?

(More than we know)

G#m

Do you trust in me baby?

G#m Am A#m

When I tell you we can do it

A#m Am G#m

Let me show you we can do it

G#m C#

We can go

C#

(More than we know)

Oh, oh, oh, oh

F# F# G G#m G#m G#m Am A#m A#m Am G#m

(More than we know)

Woo-hoo, woo-hoo, woo-hoo, woo-hoo

G#m

Oh, oh, oh, oh, oh, oh

C# F#

Hey, hey, hey, put 'em back up around

F# G G#m

Hey, hey, hey

G#m

More than we know

G#m Am A#m A#m Am G#m C#

'Cause baby we can do more than we know

Letra subida por: Anónimo

Discos en los que aparece este acorde: Here , Here (Deluxe Edition)

El acorde de More Than We Know de Alicia Keys es una versión de la canción original realizada por colaboradores/usuarios de Coveralia.

¿Has encontrado algún error en esta página? Envíanos tu corrección del acorde