música
Buscador

Acorde de Mirrorball - Blur

Letra de Mirrorball



E A D G B E

C/G - 3 3 2 x 1 x



Intro:



Em C/G



e--------------------------|

B--------------------------|

G------------2--4--2--0----|

D------0--2-------------2--| (Play 2 times)

A---2----------------------|

E--------------------------|



Em C/G

Mirrorball on a Jordan train

Em

I was under sea then up for air

A C/G Bm

I did not retain



Em C/G

Ocean Park where the seagulls cry

Em

I remember flying dragons too

A C/G

I was there with you

Bm

So before you log out

Em C/G

Hold close to me

Em Am Bm

Hold close to me





Em C/G



e--------------------------|

B--------------------------|

G------------2--4--2--0----|

D------0--2-------------2--| (Play 2 times)

A---2----------------------|

E--------------------------|



Em C/G

I'll be back when December comes

Em

http://www.coveralia.com/acordes/mirrorball-blur.php

All the barriers have been pulled down

A C/G Bm

Where is everyone?

Em

Oh Mirrorball

C/G

You're spinning out to sea

Em

Think I found you in the temple square

A C/G

Under the wishing tree

Bm

So cry your eyes out

Em C/G

Hold close to me

Em Am Bm

Hold close to me





Em C/G Em A C/G Bm



e---------0-------------0--|--------------------0--------0----0----2--2--------2--------2--------2--------|

B---------0-------------1--|--------------------0--------2----1----3-----3--------3--------3--------3-----|

G---------0--2--4--2--0-0--|--------------------0--------2----0----4--------4--------4--------4--------4--|

D------0--2-------------2--|--4--2--4--2--0-----2--------2----2----4--------------------------------------|

A---2-----2-------------3--|-----------------0--2--2--0--0----3----2--------------------------------------|

E---------0-------------3--|--------------------0-------------3-------------------------------------------|



Em C/G Em A C/G Bm (I cried my eyes out...)



e---------0-------------0--|--------------------0--------0----0----2--2--------2--------2--------2--------|

B---------0-------------1--|--------------------0--------2----1----3-----3--------3--------3--------3-----|

G---------0--2--4--2--0-0--|--------------------0--------2----0----4--------4--------4--------4--------4--|

D------0--2-------------2--|--4--2--4--2--0-----2--------2----2----4--------------------------------------|

A---2-----2-------------3--|-----------------0--2--2--0--0----3----2--------------------------------------|

E---------0-------------3--|--------------------0-------------3-------------------------------------------|



Bm

I cried my eyes out

Em C/G

Hold close to me

Em C/G

Hold close to me

Em C/G

Hold close to me

Em

Hold close to me

Letra subida por: Anónimo

Discos en los que aparece este acorde: The Magic Whip

El acorde de Mirrorball de Blur es una versión de la canción original realizada por colaboradores/usuarios de Coveralia.

¿Has encontrado algún error en esta página? Envíanos tu corrección del acorde