música
Buscador

Acorde de Mientras Te Amo - Miguel Gallardo



INTRO PIANO



G D7 D7 G G D7



e ||--------10-10-8----|-----8-8-11-11-10-----|---------10-10-8------|

B ||--11-11------------|----------------------|---11-11--------------|

G ||-------------------|----------------------|----------------------|

D ||-------------------|----------------------|----------------------|

A ||-------------------|----------------------|----------------------|

E ||-------------------|----------------------|----------------------|





D D7



e ||---10-11-8-10-6-8-------------------------||

B ||------------------10-11-8-10-6-8----------||

G ||---------------------------------9-10-7---|| 2 VECES

D ||------------------------------------------||

A ||------------------------------------------||

E ||------------------------------------------||



Gm

Mientras te amo

D#

Se olvidarme del dolor

F

Y sentir todo el calor

Bb D7

de tus caricias



Gm D#

Soy, un gorrión sin libertad

F

Atrapado entre tu piel

Bb

y tu sonrisa



D7

Mientras te amo

Gm

Me siento bueno

D# Cm

Y creo de nuevo

D7

En la vida





Coro



Gm

Me das la fantasía

D#

Me llenas de armonía

Cm

Me haces más humano

Gm D

Mi amor mientras te amo





INTRO PIANO





Gm

Mientras te amo

D#

tras un día agotador

F

sé apreciar todo el valor

Bb D7

de estar contigo



Gm D#

Sé, comprenderme un poco más

F

y hasta puedo perdonar

Bb

a mi enemigo



D7

Mientras te tengo

Gm

Soy generoso

D# Cm

y amo con fuerza

D7

a la vida



http://www.coveralia.com/acordes/mientras-te-amo-miguel-gallardo.php



Coro



Gm

Me das la fantasía

D#

Me llenas de armonía

Cm

Me haces más humano

Gm D

Mi amor mientras te amo





Intro piano X1





D# Bb

Alcanzo el cielo con mis manos

D# Bb F

Huye de mi la soledad

D# F Bb

Rompo la cárcel de mi mente



Cm F

Y sé volar Y sé volaaaar........





D# Cm Dsus4 D7





* EL INTRO SUBE UN TONO LO MISMO LOS ACORDES DEL CORO





Coro



Am

Me das la fantasía

F

Me llenas de armonía

Dm

Me haces más humano

Em E7

Mi amor mientras te amo



Am

Me das la fantasía

F

Me llenas de armonía

Dm

Me haces más humano

Am E7

Mi amor mientras te amo







REPITE HASTA EL FINAL





Am E7 E7 Am Am E7



e ||----------12-12-10----|----10-10-13-13-12----|----------12-12-10-----|

B ||----13-13-------------|----------------------|----13-13--------------|

G ||----------------------|----------------------|-----------------------|

D ||----------------------|----------------------|-----------------------|

A ||----------------------|----------------------|-----------------------|

E ||----------------------|----------------------|-----------------------|



E E7



E ||--12-13-10-12-8-10---------------------------||

B ||-------------------12-13-10-12-8-10----------||

G ||------------------------------------11-12-9--||

D ||---------------------------------------------||

A ||---------------------------------------------||

E ||---------------------------------------------||



los acordes que se usan son:



G D7 Gm D# F Bb Cm Dsus4 Am D Dm Em E7



e 3 2 3 3 1 1 3 3 0 2 1 0 0

B 3 1 3 4 1 3 4 3 1 3 3 0 3

G 0 2 3 3 2 3 5 2 2 2 2 0 1

D 0 0 5 1 3 3 5 0 2 0 0 2 2

A 2 X 5 X 3 1 4 X 0 X X 2 2

E 3 X 3 X 1 X X X X X X 0 0

Letra subida por: Anónimo

Discos en los que aparece este acorde: Mi Historia , Tesoros De Coleccion , Corazon Viajero

El acorde de Mientras Te Amo de Miguel Gallardo es una versión de la canción original realizada por colaboradores/usuarios de Coveralia.

¿Has encontrado algún error en esta página? Envíanos tu corrección del acorde