música
Buscador

Acorde de Mi Nuevo Chevrolet - Viticus

Letra de Mi Nuevo Chevrolet

intro

Riff3 re la Riff3 re la Riff3 re la Riff3 re mi



Riff4 tres veces y el final



LA

Deberé circular para recuperar

Riff3 RE LA

A mi nuevo Chevrolet

Fué robado por una mujer sin igual

Es mi nuevo Chevrolet



RE

Recorreré autopistas

Una por una

Lo voy a encontrar riff2



RE

Yo solo quiero mi auto

Que pase con ella

MI

Me da igual



(Riff4)---



Buscaré el barrio chino de la gran ciudad

Y veré al asesino peor del lugar

Le diré que lo encuentre y la deje escapar

Solo quiero mi auto, ella me da igual



Recorreré autopistas

http://www.coveralia.com/acordes/mi-nuevo-chevrolet-viticus.php

Una por una

Lo voy a encontrar riff2



Yo solo quiero mi auto

Que pase con ella

Me da igual



solo slide



Deberé circular para recuperar

A mi nuevo Chevrolet

Buscaré al asesino peor del lugar

Por mi nuevo Chevrolet

Es mi nuevo Chevrolet



riff1

3-10b-12b-10b-12b-----

4-10b-12b-10b-12b-----



riff2

2-10b-12b-12b-12b--

3-----------------10b-12b-12b--

(-------------RIFF4-------------)

RIFF3 |repite 3 vcs| |elfinal |

1-------------- 1-------------- ----------------

2-------------- 2-------------- ----------------

3-------------- 3-------------- ----------------

4-------------- 4-2-2-2-5-4-2-2- -2-2-2-2-2-2----

5-------------- 5-0-0-3-----0-0- -0-4-0-3-0-3----

6-0-2-3-------- 6-------------- ----------------

Letra subida por: Anónimo

Discos en los que aparece este acorde: Viticus

El acorde de Mi Nuevo Chevrolet de Viticus es una versión de la canción original realizada por colaboradores/usuarios de Coveralia.

¿Has encontrado algún error en esta página? Envíanos tu corrección del acorde