música
Buscador

Acorde de Mi Negrita - Devendra Banhart

Letra de Mi Negrita

          Em                                 D

E|------------------------------------------------------------------------|

B|-----------------------------------------------7------------7-----------|

G|-7-6----6-6-7--9-9-7-6---6-6-7--9-9---7-6---------9-7-6---------9-7-6---|

D|-----5--------------------------------------------------9-9----------9-9|

A|------------------------------------------------------------------------|

E|------------------------------------------------------------------------|



Em D

E|----------------------------------------10-9-7-------------------------|

B|------------------------------------------------10-7/12----------------|

G|---6-6-7--9-9--7-6----6-6-7--9-9--7-6-4--------------------------------|

D|-----------------------------------------------------------------------|

A|-----------------------------------------------------------------------|

E|-----------------------------------------------------------------------|



Em D

Mi amor no tiene esperanza,

Em D

aunque te esperará.

Bm Em

Mi corazón se lanza.

A7 F#m9

Un fantasma corporreal.



Em D

Mi amor no tiene venganza,

Em D

aunque me matará.

Bm Em

Este viejo no se cansa,

A7 F#m9

siempre te perseguirá. Así­ que





Em

Feo amor no necesito esperanza

D

Ven amor aquí

Em

Feo amor no grita en mi lancha

D

Alrededor de ti.



Bm Em

Vertido en mi dolor

Em A7 F#m9

Negrita de mi amor)



Em

Feo amor mosquito tan dandy

D

Fue un amor así

Em

Feo amor no quita esperanza

http://www.coveralia.com/acordes/mi-negrita-devendra-banhart.php

D Em

Ven amor aquí



Em D Em D

Ven amor, oh, oh, oh!





Em D

E|------------------------------------------------------------------------|

B|-----------------------------------------------7------------7-----------|

G|-7-6----6-6-7--9-9-7-6---6-6-7--9-9---7-6---------9-7-6---------9-7-6---|

D|-----5--------------------------------------------------9-9----------9-9|

A|------------------------------------------------------------------------|

E|------------------------------------------------------------------------|



Em D

E|----------------------------------------10-9-7-------------------------|

B|------------------------------------------------10-7/12----------------|

G|---6-6-7--9-9--7-6----6-6-7--9-9--7-6-4--------------------------------|

D|-----------------------------------------------------------------------|

A|-----------------------------------------------------------------------|

E|-----------------------------------------------------------------------|





Em D

Mi amor no te hablo paja

Em D

Aunque no es la verdad

Bm Em

Mi abogado trabaja

A7 F#m9

Para que tú puedas descansar, así que



Em

Feo amor no necesita esperanza

D

Ven amor aquí

Em

Ven amor disfruta mi grasa

D

Alrededor de ti



Em D Em D

oh,oh,oh,oh!





Em D

Feo amor, feo amor

Em D

Feo amor, feo amor!

Em D

Feo amor, feo amor

Em D

Feo amor, feo amor.

Letra subida por: Anónimo

Discos en los que aparece este acorde: Mala

El acorde de Mi Negrita de Devendra Banhart es una versión de la canción original realizada por colaboradores/usuarios de Coveralia.

¿Has encontrado algún error en esta página? Envíanos tu corrección del acorde