música
Buscador

Acorde de Mi Cumpleaños - Hombres G

Letra de Mi Cumpleaños

Intro: (50) C  (50) C 

(50)

Hoy es mi cumpleaños

C (50) C e|----5-(slide)-6-(Slide)-5-(Slide)-6---|

estoy sentado afuera junto a la pared NOTA:Slide haciendo efecto de eco varias veces

(50) C (50) C

hay una chimenea y algunas tazas de cafe

Am Cm

el aire mueve el alma de mi soledad

G B C

y algunas hojas secas que hacen ruido al resbalar

Cm (50) C (50) C

Creo que unos niños juegan al billar

(50)

tengo mi propia habitacion

C (50) C

mis arboles de invierno y mi balon

(50) C (50) C

el mundo en el bolsillo pequeño de mi pantalon

Am

Pero hace tanto tiempo

Cm

y que no he visto el mar

G B C

que a veces tengo ganas de llorar

Cm (50) C (50) C

Hace frio aqui afuera... tapame



Solo Acomp: Em B Em B C B Am B



Solo:

e--12---10-------------------------------------12------------------8--------------------------

B--12----------12---10-----------------12------12--(slide hasta)---8--------------------------

G--12-------------------12-----8---------------12------------------8--------------------------

D---------------------------------------------------------------------------------------------

A---------------------------------------------------------------------------------------------

E---------------------------------------------------------------------------------------------



e--12---10------------------------------------------------------------------------------------

B--12----------12---10-----------------12-----------------------------------------------------

G--12-------------------12-----8----------------------------------10--10(Bends hacia arriba)--

D-----------------------------------------------------10----12--------------------------------

A-----------------------------------------------12--------------------------------------------

E---------------------------------------------------------------------------------------------



e--12---10------------------------------------------------------------------------------------

B--12----------12---10-----------------12------10--(slide hasta)---6--------------------------

G--12-------------------12-----8---------------10------------------6--------------------------

D---------------------------------------------------------------------------------------------

A---------------------------------------------------------------------------------------------

E---------------------------------------------------------------------------------------------

http://www.coveralia.com/acordes/mi-cumpleanos-hombres-g.php



e--12---10------------------------------------------------------------------------------------

B--12----------12---10------------12----------------------------------------------------------

G--12-------------------12--------------------------------------------------------------------

D---------------------------------------------------------------------------------------------

A---------------------------------------------------------------------------------------------

E---------------------------------------------------------------------------------------------





Acomp: Bm C Bm C (Cambia de ritmo)





Bm

Hoy es mi cumpleaños

C Bm C

estoy sentado afuera junto a la pared

Bm

que chico tan simpatico

C

que chiste tan gracioso

Bm C

cuentalo otra vez

Am Cm

Escucho suavemente que se acaba el dia

G B C

me duele mas cada peldaño de mi vida

Cm

hoy es mi cumpleaños

(50) C

hoy es mi cumpleaños

Em

Felicitame.....





Tonos:



(50)



E------x------

B------3------

G------0------

D------4------

A------2------

E-------------





(x)= La cuerda de abajo no se toca.





Letra subida por: Anónimo

Discos en los que aparece este acorde: Peligrosamente Juntos

El acorde de Mi Cumpleaños de Hombres G es una versión de la canción original realizada por colaboradores/usuarios de Coveralia.

¿Has encontrado algún error en esta página? Envíanos tu corrección del acorde