música
Buscador

Acorde de Mereció La Pena - Gritando En Silencio

Letra de Mereció La Pena



Intro: SOL - DO x4



SOL DO SOL DO SOL DO SOL DO

|--3~~~~-------------3~~~~----------------------------------------|

|-------5--3--5--3------------------------------------------------|

|-----------------------------4~~~-5--4--5--4---------------------|

|----------------------------------------------5~~~~--------------|

|-----------------------------------------------------------------|

|-----------------------------------------------------------------|

(ESTO ES LO QUE REALIZA LA ARMONICA)



SOL - DO x4



A) SOL DO SOL DO

Ahí va una canción a nuestra generación...

SOL DO SOL DO

A todos los que hemos perdido, a la generación

RE

de los 15 minutos de sexo apresurado,

FA DO

entre tontos, entre necios besos que no tienen precio

SOL - DO x2

y gente del montón.



A)

Ahí va una canción a tu genración La generación del orgullo del mediocre

la tuya que es la mía, del pasar desapercibido

LA que REbosa hipocresía de la mierda color ocre

no me quejo..lo tenemos merecido que ha suplantado nuestra imaginación

por haber creido, del se mira pero no se toque

frente a un televisor. y de mi incomprensión.



B) SIm LA

Siéntete engañado, siéntete manipulado,

SOL RE

siente como hemos perdido todo por lo que lucharon.

SIm LA

Vive como si murieras,

SOL RE LA

para poder morir diciendo que ésto mereció la pena.



SOL RE ... RE# FA



SOL DO SOL DO SOL DO SOL DO

|--3~~~~-------------3~~~~----------------------------------------|

|-------5--3--5--3------------------------------------------------|

|-----------------------------4~~~-5--4--5--4---------------------|

|----------------------------------------------5~~~~--------------|

|-----------------------------------------------------------------|

|-----------------------------------------------------------------|



A)

Matamos revoluciones Los ke nacimos tarde en esta era digital

y ahora que el tiempo ha pasado los que vamos perdiendo

no hay a quien echar la culpa hasta la facultad de hablar...

y el sistema ha fracasado. Todo sabe a plástico

Seguimos siendo esclavos y lo autentico escasea,

de un trabajo de una moda... pero no vivimos,

y la vida, una vida vale, porque nos morimos

sentimos perdonar. por sentir lo que sea verdadero.



Éste es el mensaje para los supervivientes

a esta selva de cemento, a esta escuela de inconscientes,

http://www.coveralia.com/acordes/merecio-la-pena-gritando-en-silencio.php

donde todo es menosprecio a lo que sea diferente

pa' matarnos a las personas y alejaron gente de mentira.



B) SIm LA

Siéntete engañado, siéntete manipulado,

SOL RE

siente como hemos perdido todo por lo que lucharon.

SIm LA

Vive como si murieras,

SOL RE LA

para poder morir diciendo que ésto mereció la pena.



SOL RE ... RE# FA



SOL DO SOL DO SOL DO SOL DO

|--3~~~~-------------3~~~~----------------------------------------|

|-------5--3--5--3------------------------------------------------|

|-----------------------------4~~~-5--4--5--4---------------------|

|----------------------------------------------5~~~~--------------|

|-----------------------------------------------------------------|

|-----------------------------------------------------------------|



A)

Aunque la vida se me escapa, Aunque algunos ya se han ido,

dejando un mal sabor de boca... otros se van volviendo locos.

en un segundo cabe un mundo De los que sobrevivimos

hay que vivir lo que me arropa... cada vez somos más pocos.

cada trágico final, Si sientes

cada cruce de miradas, que sentir no está de moda

cada sonrrisa, bienvenido...bienvenido a la oda

cada calada en cada madrugada. de nuestra generación.





B) SIm LA

Siéntete engañado, siéntete manipulado,

SOL RE

siente como hemos perdido todo por lo que lucharon.

SIm LA

Vive como si murieras,

SOL RE LA

para poder morir diciendo que ésto mereció la pena.



C) DOm - LA# - SOL#-RE# - LA#



DOm A#

(Mereció la pena... mereció la pena...)

SOL# RE# LA#

Cada sensación que maquilló este sin sentido...

DOm LA#

(Mereció la pena... mereció la pena...)

SOL# RE# LA#

Cada polvo, cada lengua, cada minuto compartido...

DOm LA#

(Mereció la pena... mereció la pena...)

SOL# RE# LA#

Y cuando llegue la muerte si pregunta le diremos...

DOm LA#

(Mereció la pena... mereció la pena...)



DOm - LA# - SOL#-RE# - LA#





Letra subida por: Anónimo

Discos en los que aparece este acorde: Contratiempo

El acorde de Mereció La Pena de Gritando En Silencio es una versión de la canción original realizada por colaboradores/usuarios de Coveralia.

¿Has encontrado algún error en esta página? Envíanos tu corrección del acorde