música
Buscador

Acorde de Mentiroso - Ricardo Arjona

Letra de Mentiroso

Intro:(Riff 1)



E -------------------10-12-10-----------------------

B ---------10--12-------------12----10-10-12--------

G ----9-12--------12-------------12-----------------

D -12----------------------------------------12-----

A --------------------------------------------------

E --------------------------------------------------



E --------------------------------------------------

B ---------10----10-12------------------------------

G ----9-12----12-------12---------------------------

D -12-----------------------------------------------

A --------------------------------------------------

E --------------------------------------------------



Solo 1:



E --------------------------------------------------

B ------------10------------------------------------

G ------12-12----12---------------------------------

D -(12)---------------------------------------------

A --------------------------------------------------

E --------------------------------------------------



Solo 2:



E ---7---5------------------------------------------

B --------------------------------------------------

G -7---5---4----------------------------------------

D --------------------------------------------------

A --------------------------------------------------

E --------------------------------------------------



Solo 3:



E ----------------10--------------------------------

B -12-10----10/12-----------------------------------

G -------10-----------------------------------------

D --------------------------------------------------

A --------------------------------------------------

E --------------------------------------------------



Solo 4:



E --------------------------------------------------

B (12)----------------------------------------------

G -12-11-12-11--------------------------------------

D -------------12-----------------------------------

A --------------------------------------------------

E --------------------------------------------------



Solo 5:



E ---7----------------------------------------------

B --------------------------------------------------

G -7------------------------------------------------

D --------------------------------------------------

A --------------------------------------------------

E --------------------------------------------------



Solo 6:



E --------------------------------------------------

B -------4-3----------------------------------------

G -----5-----5--------------------------------------

D ---5----------------------------------------------

A -3------------------------------------------------

E --------------------------------------------------



Solo 7:



http://www.coveralia.com/acordes/mentiroso-ricardo-arjona.php

E ---7-5-3------------------------------------------

B --------------------------------------------------

G -7------------------------------------------------

D --------------------------------------------------

A --------------------------------------------------

E --------------------------------------------------



Riff 2:



E -7-8-7-5------------------------------------------

B ---------8-7-5------------------------------------

G --------------------------------------------------

D --------------------------------------------------

A --------------------------------------------------

E --------------------------------------------------



Sol Re/Fa# Mim

Yo no quería mentir me hiciste un mentiroso.

Do Sol Re Do

Hoy digo lo que tú quieres oír, como un acto piadoso.

Sol Re/Fa# Mim Solo 1

Yo no quería huir me hiciste un fugitivo.

Do Sol Re Solo 2

Con tal de no reñirme invento algún motivo.



Sol Re/Fa# Mim Solo 3

Total que sigo siendo el mismo que yo he sido.

Do Sol Re Solo 4

Y soy es que soy distinto lo soy solo contigo.

Si Mim Solo 5 Dom Solo 6 Sol

Con tal de dibujarte en el rostro una sonrisa.

Sol Re Do

Mentir se hizo un ejercicio soy un embustero.



Sol Re

Una mentira que te haga feliz,

Do

vale más que una verdad

Riff 2

que te amargue la vida.



Sol Re

Una mentira hará crecer mi nariz

Do

a cambio de libertad

Sol La

y de aferrarte a mi vida.



Si Mim

Y algo para que me entiendas.

Do Sol Re Mim

Que si miento es porque nunca creerías.

Do Sol

Que en el sitio en donde esté

Re Do

siempre estaré pensando en ti.



Do Sol Re Do



Qué culpa tengo yo del crimen y el castigo?

De creer que por amor dejamos de ser amigos.

Si te fijaste en mí no fue por ser un santo.

Lo que te gustó de mí hoy te provoca llanto.



Para que armo la guerra siéndote sincero?

Mentira, es una forma de decir te quiero.

Con tal de no ser blanco de tus peores enojos.

Miento como un enfermo hiriéndote a los ojos.



Una mentira...

Discos en los que aparece este acorde: Sin Daños A Terceros

El acorde de Mentiroso de Ricardo Arjona es una versión de la canción original realizada por colaboradores/usuarios de Coveralia.

¿Has encontrado algún error en esta página? Envíanos tu corrección del acorde