música
Buscador

Acorde de Mentes Perversas - Horcas

Letra de Mentes Perversas

INTRO:

A C A A C B A C A

e|------------------------+-----------------------+-----------------------|

B|---------------------8--+-----------------------+-----------------------|

G|--6-6---9--9--6-6--/9---+--6-6---9--9--6-6/8-8--+--6-6---9--9--6-6------|

D|--7-7--10-10--7-7-------+--7-7--10-10--7-7/9-9--+--7-7--10-10--7-7------|

A|--7-7--10-10--7-7-------+--7-7--10-10--7-7/9-9--+--7-7--10-10--7-7------|

E|--5-5---8--8--5-5-------+--5-5---8--8--5-5/7-7--+--5-5---8--8--5-5------|

^^^^ ^^^^

guitarra 1º Solo bajo

A C B A C / B

e|-----------------------+-------+------------19-------17/(19)--20/(23)\--|

B|-----------------------+-------+---------19----19-19--------------------|

G|--6-6---9--9--6-6/8-8--+--6-6--+----------------------------------------|

D|--7-7--10-10--7-7/9-9--+--7-7--+------16--------------------------------|

A|--7-7--10-10--7-7/9-9--+--7-7--+----------------------------------------|

E|--5-5---8--8--5-5/7-7--+--5-5--+--/17-----------------------------------|

^^^^^^^^^^^^^^^^^^^^^^^^^^^^^^^^^^^^

guitarra 1º



e|--------------------------------------------|

B|--------------------------------------------|x4

G|--------------------------------------------|

D|--------------------------------------------|

A|--------3-3-3-2-2-2-------------3-3-3-2-----|

E|--0-0-0-------------3-3-3-0-0-0---------3~--|

x2

e|---------------------------------------------------+----------|

B|---------------------------------------------------+----------|

G|---------------------------------------------------+----------|

D|---------------------------------------------------+----------|

A|--------3-3-3-2-2-2-------------3-3-3-2-2-2--------+----------|

E|--0-0-0-------------3-3-3-0-0-0-------------3-3-3--+-2/3\2^0--|



E/ C/B/ G E/ C/B/ G E/ C/B/D/C/B

e|-------------------------------------+----|

B|-------------------------------------+----|x2

G|-------------------------------------+----|

D|--2--5-4--------5-4-----2--5-4-7-5-4-+----|

A|--2--3-2-----2--3-2-----2--3-2-5-3-2-+----|

E|--0------/3--0------/3--0------------+-/3-|

^^^^1º vez

BASE:

e|--------------------------------------------------------|

B|--------------------------------------------------------|

G|--------------------------------------------------------|

D|--------------------------------------------------------|

A|--------------------------------------------------------|

E|--0-0--0--0-0--0--0-0--0-2-3-2-0-0--0--0-0--0--0-0-...--|



Em

No aguanto más esos disfraces

B5

tratando de aparentar

Em

cuidando que sus maquillajes

B5

oculten su falsedad

C5 F5# B5

Ellos son héroes de esta sociedad

C5 F5# B5 Em

y te encontras con toda su sucia maldad



e|-----------------------+---------------------+-----------------+----------------------|

B|---------------------8-+---------------------+-----------------+----------------------|

G|--6-6---9--9--6-6--/9--+-6-6---9--9--6-6/8-8-+-6-6---9--9--6-6-+-6-6---9--9--6-6/8-8--|

D|--7-7--10-10--7-7------+-7-7--10-10--7-7/9-9-+-7-7--10-10--7-7-+-7-7--10-10--7-7/9-9--|

A|--7-7--10-10--7-7------+-7-7--10-10--7-7/9-9-+-7-7--10-10--7-7-+-7-7--10-10--7-7/9-9--|

E|--5-5---8--8--5-5------+-5-5---8--8--5-5/7-7-+-5-5---8--8--5-5-+-5-5---8--8--5-5/7-7--|



Deberás ser lo que ellos dicen

para llegar llegar a triunfar.

Y cambiarás tus pensamientos

para ser algo normal.

Destruirán todas tus ganas de luchar.

Hay que avanzar para poderlos pisar.



Em /F#5 /G5

e|----------------------------------+---------------------|

B|----------------------------------+---------------------|

G|---------11--12---------------12--+---------------------|

D|--2------11--12---------------12--+---------------------|

A|--2------9---10--10-10-10-%%%-10--+--10-10-10-10-%-%-%--|

E|--0-------------------------------+---------------------|

...pisar

X4

e|----------------------+-------------------------------------------------------------------

B|----------------------+-------------------------------------------------------------------

G|----------------------+-------------------------------------------------------------------

D|----------------------+--9-9--10-10-10-9------------------12-9-------------10-9-----------

A|--7-----7-------------+--7-7--8--8--8--7--7-7-7-%%%---10--10-7--7-7-7-%%%--8--7-7-7-7-%%%-

E|--5--0--5--5-5-5-%%%--+-------------------------------8-----------------------------------



e|------------------------------------------------------------------|

B|------------------------------------------------------------------|

G|------------------------------------------------------------------|

D|------12-9-------------10-9------------------12-9-------------10--|

A|--10--10-7--7-7-7-%%%--8--7--7-7-7-%%%---10--10-7--7-7-7-%%%--8---|

E|--8--------------------------------------8------------------------|



e|----------------------------------------------------------------------------------|

B|----------------------------------------------------------------------------------|

G|----------------------------------------------------------------------------------|

D|--5--------------------5--------------------7--------------------7----------------|

A|--3--3-3-3--3-3-3--3-3-3--3-3-3--3-3-3--3-3-5--5-5-5--5-5-5--5-5-5--5-5-5--5-5-5--|

E|----------------------------------------------------------------------------------|



SOLO GUITARRA:

e|-----------------------------------------------------------------17^15----15-17--17/(19)--

B|--15/(17)--17--15--15/(17)--15/(17)\15^12----12^15^12--15\---/17-------17-----------------

G|------------------------------------------14----------------------------------------------

D|------------------------------------------------------------------------------------------

A|------------------------------------------------------------------------------------------

E|------------------------------------------------------------------------------------------

Bm

e|--14^10----10--12^10----10--14^10----10--12^10----10--|

http://www.coveralia.com/acordes/mentes-perversas-horcas.php

B|--------12-----------12-----------12-----------12-----|x2

G|------------------------------------------------------|

D|------------------------------------------------------|

A|------------------------------------------------------|

E|------------------------------------------------------|

C

e|--15^12----12--14^12----12--15^12----12--14^12----12--|

B|--------14-----------14-----------14-----------14-----|x2

G|------------------------------------------------------|

D|------------------------------------------------------|

A|------------------------------------------------------|

E|------------------------------------------------------|

A

e|--12^9----9--10^9----9--12^9----9--10^9----9--|

B|-------10---------10---------10---------10----|x2

G|----------------------------------------------|

D|----------------------------------------------|

A|----------------------------------------------|

E|----------------------------------------------|

D

e|--14^10----10--12^10----10--14^10----10--12^10----10--|

B|--------10-----------10-----------10-----------10-----|x2

G|------------------------------------------------------|

D|------------------------------------------------------|

A|------------------------------------------------------|

E|------------------------------------------------------|

G

e|------------------------------------------------------|

B|--15^12----12--13^12----12--15^12----12--13^12----12--|x2

G|--------12-----------12-----------12-----------12-----|

D|------------------------------------------------------|

A|------------------------------------------------------|

E|------------------------------------------------------|

F#

e|------------------------------------------------------|

B|--17^14----14--15^14----14--17^14----14--15^14----14--|x2

G|--------15-----------15-----------15-----------15-----|

D|------------------------------------------------------|

A|------------------------------------------------------|

E|------------------------------------------------------|

Em x2 B5 / A5

e|--14^10----10--13^10----10--+--14-12----12------------------------------------|

B|--------12-----------12-----+--------15----15-14-15-14-12-14-12----12---10~\--|

G|----------------------------+-----------------------------------14------------|

D|----------------------------+-------------------------------------------------|

A|----------------------------+-------------------------------------------------|

E|----------------------------+-------------------------------------------------|



Bm

e|--14^10----10--12^10----10--14^10----10--12^10----10--|

B|--------12-----------12-----------12-----------12-----|x2

G|------------------------------------------------------|

D|------------------------------------------------------|

A|------------------------------------------------------|

E|------------------------------------------------------|

C

e|--15^12----12--14^12----12--15^12----12--14^12----12--|

B|--------14-----------14-----------14-----------14-----|x2

G|------------------------------------------------------|

D|------------------------------------------------------|

A|------------------------------------------------------|

E|------------------------------------------------------|

A

e|--12^9----9--10^9----9--12^9----9--10^9----9--|

B|-------10---------10---------10---------10----|x2

G|----------------------------------------------|

D|----------------------------------------------|

A|----------------------------------------------|

E|----------------------------------------------|

D

e|--/14-----12----------------------------|

B|-------15-----14-15--12-14-11-12-10-12--|

G|----------------------------------------|

D|----------------------------------------|

A|----------------------------------------|

E|----------------------------------------|

CONTINUA SOLO (en B)



G / F5#

B5 / C5# / D5 / E5 / F5# / B5



E/ C/B/ G E/ C/B/ G E/ C/B/D/C/B

e|-------------------------------------+----|

B|-------------------------------------+----|x2

G|-------------------------------------+----|

D|--2--5-4--------5-4-----2--5-4-7-5-4-+----|

A|--2--3-2-----2--3-2-----2--3-2-5-3-2-+----|

E|--0------/3--0------/3--0------------+-/3-|

^^^^1º vez

Rómpanse ya esas caretas

que nada pueden cambiar.

Unamos ya nuestras ideas.

Es tiempo de despertar.

Destruir todas las mentes perversas

Em - D5 - C5

Basta ya héroes de esta sociedad.

B5 - A5 - G5

ehh!! ehh!! ehh!!

F5# - Em

iiiieeeeeehhhh!!!



FINAL: improv. en Em de pentat. (aprox).

e|-------------12--------------------------------------------12--------------|

B|----------12----15^12----12---------------------12------------15^12----12--|

G|--14/(16)-------------14-----14/(16)\14^12-14------14/(16)----------14-----|

D|---------------------------------------------------------------------------|

A|---------------------------------------------------------------------------|

E|---------------------------------------------------------------------------|



e|---------------------------------------------------------------------------|

B|---------------------------------------------------------------------------|

G|--14^12----12--12----------------------------------------------------------|

D|--------14--------14-12-14--14^12----12-------------------------14x-/\-14--|

A|----------------------------------14----14-14^12-------------14x----/\-14--|

E|-------------------------------------------------15-12~--12x--------/\-12--|

Letra subida por: Anónimo

Discos en los que aparece este acorde: Vence

El acorde de Mentes Perversas de Horcas es una versión de la canción original realizada por colaboradores/usuarios de Coveralia.

¿Has encontrado algún error en esta página? Envíanos tu corrección del acorde