música
Buscador

Acorde de Me Vs. Maradona Vs. Elvis - Brand New

Letra de Me Vs. Maradona Vs. Elvis



CAPO 2ND FRET!!



Chords: EADGBe

022000 Em

x33210 Fmaj7 which i called F in the tab

x32010 C

320033 G

x02210 Am



Intro:



e--0------------------------------0--------------------------------|

b--1-1-1-0-0-0-0-0----------------1-1-1-0-0-0-0-0------------------|

g--0---------------2-2-2-0-0-0-0--0---------------2-2-2-0-0-0-0----|

d--2------------------------------2--------------------------------|

a--3------------------------------3--------------------------------|

e------------------------------------------------------------------|





e--0------------------------------0--------------------------------|

b--1-1-1-0-0-0-0-0----------------1-1-1-0-0-0-0-0------------------|

g--2---------------2-2-2-0-0-0-0--2---------------2-2-2-0-0-0-0----|

d--3------------------------------3--------------------------------|

a--3------------------------------3--------------------------------|

e------------------------------------------------------------------|



Verse:



C

With one or two I get used to the room

C

We go slow when we first make our moves

F

'Bout five or six bring you out to the car

F

Number nine with my head on the bar

Em F Am G

And its sad, but true

Em F Am G

Out of cash and I owe you.



C

I got desperate desires and unadmirable plans

C

My tongue will taste of gin and malicious intent

F

Bring you back to the bar, get you out of the cold

F

A sober straight face, gets you out of your clothes

Em F Am G

And they're scared, that we know

Em F Am

All the crimes they'll commit

G

Who they'll kiss before they get home.



Chorus:



C G C

I will lie awake

G F G

Lie for fun and fake the way I hold you

F G

Let you fall for every empty word I say.



Verse:



C

Barely conscious in the door where you stand

C

Your eyes are fighting sleep while

http://www.coveralia.com/acordes/me-vs--maradona-vs--elvis-brand-new.php



Your mouth makes your demands

F

You laugh at every word



Trying hard to be cute

F

I almost feel sorry for what I'm gonna do

Em F Am G

And your hair smells of smoke

Em F Am

Who will cast the first stone?

G

You can sin or spend the night all alone.



C

Brass buttons on your coat hold the cold,

C

In the shape of a heart that they cut out of stone

F

You're using all your looks that you've thrown from the start

F

If you let me have my way, I swear I'll tear you apart

Em F Am G

Cause its all you can be

Em F

You're a drunk

Am

And your scared

G

Its ladies night, all the girls drink for free.





Chorus:



Thi bit sounds good with the chours





"I will lie awake"

e--0---0---0---0---3------------------------------------------------|

b--1---1---1---1---3------------------------------------------------|

g--0---0---0---2---0------------------------------------------------|

d--2---2---2---2---0------------------------------------------------|

a--3---3---3---0---2------------------------------------------------|

e------------------3------------------------------------------------|



C G C

I will lie awake

G F G

Lie for fun and fake the way I hold you

F G

Let you fall for every empty word I say.



C G C

I will lie awake

G F G

Lie for fun and fake the way I hold you

F G

Let you fall for every empty word I say.



C G C

I will lie awake

G F G

Lie for fun and fake the way I hold you

F G

Let you fall for every empty word I say.









Letra subida por: Anónimo

Discos en los que aparece este acorde: Deja Entendu

El acorde de Me Vs. Maradona Vs. Elvis de Brand New es una versión de la canción original realizada por colaboradores/usuarios de Coveralia.

¿Has encontrado algún error en esta página? Envíanos tu corrección del acorde