música
Buscador

Acorde de Me Quieres Destrozar - Ruben Pozo

Letra de Me Quieres Destrozar





Intro:



E - A - B - E

E A B E

e|----4-2-0-4-0------4-2-0-4-0-----4-2-0-4----------4-2-0-4-0----|

B|--0-------------0-------------0-----------4----0---------------|

G|---------------------------------------------------------------|

D|---------------------------------------------------------------|

A|---------------------------------------------------------------|

E|---------------------------------------------------------------|



E A

Pensando en dejarte, así están las cosas

B E

Todos los desastres, todas las rosas

E A

A punto de rendirme, cambiar de fase

B E

Ya no sé qué decirte: ‘Hola que hace’



e|----4-2-0-4-0---|

B|--0-------------|

G|----------------| Riff #1

D|----------------|

A|----------------|

E|----------------|



B A E (Riff #1)

Me quieres destrozar o ¿qué hace?

B A E (Riff #1)

Me lo monté fatal, Dios sabe

F#m B

Me ves enamorao, ya casi

F#m B

De sobra ya lo sé no es fácil

A (Riff #1)

Cariño eoeee



E A

Me quedan unos años, No voy a hipotecarme,

B E

La etapa del uranio, que sea más tarde

http://www.coveralia.com/acordes/me-quieres-destrozar-ruben-pozo.php

E (Riff #1) A (Riff #1)

No quiero oírte más, me tapas los grillos

B (Riff #1) E (Riff #1)

Me empujas a cantar, este estribillo





B A E (Riff #1)

Me quieres destrozar o ¿qué hace?

B A E (Riff #1)

Me lo monté fatal, Dios sabe





F#m B

Me ves enamorao, ya casi

F#m B

De sobra ya lo sé, no es fácil

A

Cariño eoeeee





F#m A E F#m A E

Vas buscando en la basura, maldiciendo lo encontrado

F#m A E F#m A E

Cayendo en la locura, de cubo en cubo del pasado oooooohhh



B A E (Riff #1)

Me quieres destrozar o ¿qué hace?

B A E (Riff #1)

Me lo monté fatal, Dios sabe

F#m B

Ya solo puede ser la frase

F#m B

En medio de este cruel desfase

A

Maldito eoeeee

E (Riff #1)

Hola que hace



(Solo)



E - A - B - E





Letra subida por: Anónimo

Discos en los que aparece este acorde: En Marcha

El acorde de Me Quieres Destrozar de Ruben Pozo es una versión de la canción original realizada por colaboradores/usuarios de Coveralia.

¿Has encontrado algún error en esta página? Envíanos tu corrección del acorde