música
Buscador

Acorde de Me Dueles - La Quinta Estacion

Letra de Me Dueles

Intro (0:00-0:03)

e||------------|-------------------------------------------------|

B||------------|-------------------------------------------------|

G||*----------*|-------------------------------------------------|

D||*----9-9-x-*|-------------------------------------------------|

A||-----7-7-x--|-------------------------------------------------|

E||---0-----x--|-------------------------------------------------|

Repeat/Repetir X4





Estrofa/Verse #1 (0:03-0:33)



E5

Me dueles tan hondo tan dentro,

B5

me dueles como un lamento,



me dueles como una espina,

E5

me dueles como una mentira.



Me dueles como duele el tiempo,

A5

que yo he tirado a tu lado,

E5

me dueles como duelen los ojos,

B5 E5

de haberte llorado tanto.

B5 Em

Y me dueles...





Coro/Chorus (0:34-0:57)



B5 E5* B5

Me dueles tannntooo en mi vida,

F# B5 E5*

tanto me dueles, ay que me paaareces mentira.

B5 E5*

Y me dueles...

B5 E5* B5 F#

Tantito tannntooo mi vida tanto me dueles,

B5 E5

que sin ti se acaba mi vida.





Estrofa/Verse #2 (0:57-1:30)



E5

Me dueles como duele el llanto,

B5

me dueles, ay no sabes cuanto,



me dueles como una herida,

E5

me dueles como alma perdida.



Me dueles como duele el tiempo,

A5

que yo he tirado a tu lado,

E5

me dueles como duelen los ojos,

B5 E5

de haberte llorado tanto.

B5 Em

Y me dueles...





Coro/Chorus (1:30-1:53)



B5 E5* B5

Me dueles tannntooo en mi vida,

http://www.coveralia.com/acordes/me-dueles-la-quinta-estacion.php

F# B5 E5*

tanto me dueles, ay que me paaareces mentira.

B5 E5*

Y me dueles...

B5 E5* B5 F#

Tantito tannntooo mi vida tanto me dueles,

B5 E5

que sin ti se acaba mi vida.





Intermedio Musical/Break (1:53-2:06)



E5 -> (1:53-1:58)

B5 -> (1:58-2:06)





Estrofa/Verse #3 (2:07-2:23)



E5

Me dueles como duele el tiempo,

A5

que yo he tirado a tu lado,

E5

me dueles como duelen los ojos,

B5 E5

de haberte llorado tanto.

B5 Em

Y me dueles...





Coro/Chorus (2:24-2:48)



B5 E5* B5

Me dueles tannntooo en mi vida,

F# B5 E5*

tanto me dueles, ay que me paaareces mentira.

B5 E5*

Y me dueles...

B5 E5* B5 F#

Tantito tannntooo mi vida tanto me dueles,

B5 E5

que sin ti se acaba mi vida.

B5 E5*

Y me dueles...





Solo (2:49-3:00)



B5 - E5 - B5 - F# - B5 - E5 - B5 E5

Y me dueles...





Final/Outro (3:01-3:25)



B5 E5* B5 F#

Tantito tannntooo mi vida tanto me dueles,

B5 E5

que sin ti se acaba mi vida.

Em

Y me dueles...



Acordes/Chords

e|---------------------------------------------------------------|

B|---------------------------------------------------------------|

G|---------------------------------------------------------------|

D|---9-----4----14-----2-----------------------------------------|

A|---7-----2----12-----2-----7-----2-----------------------------|

E|---------------------0-----5-----0-----------------------------|

[E5] [B5] [A5] [Em] [A5] [E5*]





Letra subida por: Anónimo

El acorde de Me Dueles de La Quinta Estacion es una versión de la canción original realizada por colaboradores/usuarios de Coveralia.

¿Has encontrado algún error en esta página? Envíanos tu corrección del acorde