música
Buscador

Acorde de Mariposas - Hombres G

Letra de Mariposas

INTRO:



Bm G D A

e|---------------------------------------------|

B|---------------------------------------------|

G|---/44-4-4-6-7-------4-6-7-------------------|

D|---------------7~--7-------5-4--------4-5----|

A|-------------------------------7-5-7------7~-|

E|---------------------------------------------|



e|------------------------------------------|

B|------------------------------------------|

G|---/44-4-4-6-7-----4-6-7------------------|

D|--------------7~--7-------5~~--4-5p4------|

A|-------------------------------------7~~--|

E|------------------------------------------|



Verse 1:

Bm G D

Yo daria lo mejor de mi vida

A

por estar con vos

Bm G D

y podría reparar mi alma herida

A

a la luz del sol

Bm G D

no es tan cierto que yo vivo como quiero

F#m Bm

mas bien hago lo que puedo

G A D D G D D5 D

viviendo a la sombra de tu amor



Bm G D

Las miradas que cruzamos son palabras

A

con el corazon

Bm G D

no hay secretos tengo el cielo por mirarte

A

ningun dolor

Bm G D

sin embargo sigo siendo un distraido

F#m Bm

como cuando era un niño

G A D D G D D5 D

dejando mariposas escapar



Bm G D A

Si te vas no tengo nada

Bm G A

si te quedas puedo hasta el mundo cambiar

Bm G F#m Bm

o quizas no habré crecido

G A D D G D D5 D

http://www.coveralia.com/acordes/mariposas-hombres-g.php

dejando mariposas escapar



Solo: Bm G D A x2



Bm G D A

e|---------------------------------------------|

B|---------------------------------------------|

G|---/44-4-4-6-7-------4-6-7-------------------|

D|---------------7~--7-------5-4--------4-5----|

A|-------------------------------7-5-7------7~-|

E|---------------------------------------------|



e|------------------------------------------|

B|------------------------------------------|

G|---/44-4-4-6-7-----4-6-7------------------|

D|--------------7~--7-------5~~--4-5p4------|

A|-------------------------------------7~~--|

E|------------------------------------------|



Verse 2:

Bm G D

Yo daria lo mejor de mi vida

A

por estar con vos

Bm G D

y podria reparar tu alma herida

A

a la luz del sol

Bm G D

sin embargo sigo siendo un distraido

F#m Bm

como cuando era un niño

G A D D G D D5 D

dejando mariposas escapar



Bm G D A

Si te vas no tengo nada

Bm G D A

si te quedas puedo hasta el mundo cambiar

Bm G F#m Bm

o quizas no habré crecido

G A D D G D D5 D

dejando mariposas escapar



Bm G D A

Si te vas no tengo nada

Bm G D A

si te quedas puedo hasta el mundo cambiar

Bm G F#m Bm

o quizas no habré crecido

G A D D G D D5 D

dejando mariposas escapar

G A D D G D D5 D

dejando mariposas escapar

Discos en los que aparece este acorde: Huevos Revueltos En Vivo

El acorde de Mariposas de Hombres G es una versión de la canción original realizada por colaboradores/usuarios de Coveralia.

¿Has encontrado algún error en esta página? Envíanos tu corrección del acorde