música
Buscador

Acorde de Mano Dura - Horcas

Letra de Mano Dura





INTRO Y VERSO:

|--------------------|

|--------------------|

|--------------------|

|--------------------|

|--6-6-6-6-7p6-4-6---|

|--6-6-6-6-7p6-4-6---|



Brindo en silencio

en la nostalgia

vivo en las noches

me dan placer



Busco un abrigo

en el exceso

ahi van mis puños

Mib Si Fa# Fa Fa# Fa Fa#

degeneracion





Mib

Quiero que vean

Si

Que no tengo miedo

Fa#

en el reviente

Fa Fa# Fa Fa#

de mi ser, de mi ser

Mib

Yo soy el dueño

Si

y este es mi juego

Fa#

de pesadillas

Fa Fa# Fa Fa#

yo no se, yo no se







Mucho dinero

mucha ambicion

hoy la verguenza

se apagara



Soy el culpable

soy el demente

ahi van mis puños

Mib Si Fa# Fa Fa# Fa Fa#

degeneracion





Mib

Entro en combate

Si

sigo la fiesta

Fa#

y no me rindo

Fa Fa# Fa Fa#

sin dolor, sin dolor

Mib

Siempre lo mismo

Si

golpe a golpe

Fa#

Sangre en las venas

Fa Fa# Fa Fa#

te dare, te dare

http://www.coveralia.com/acordes/mano-dura-horcas.php



puente con armonia:

|-------------------|

|--/7-6-------------|

|--/8-6-8-6-4-------|

|-------9-8-6--8----|

|--------------9----|

|-------------------|



Mib - Mib - Mib - Mib



Solo1



Mib - Mib - MIb - Mib

Mib - B - F#5 - F#5 F5 F#5 F5



|-------------------|

|--/7-6-------------|

|--/8-6-8-6-4-------|

|-------9-8-6--8----|

|--------------9----|

|-------------------|



Solo:



MIb Si Fa# Fa Fa# Fa Fa# x2





Sobre estribillo:

___x8___ ___x8___ ___x6___

|--18t14p11-19t14p11-18t14p11-16^18~~~p14h16^18/--|

|-------------------------------------------------|

|-------------------------------------------------|

|-------------------------------------------------|

|-------------------------------------------------|

|-------------------------------------------------|



MIb

Es cruel la historia

Si

ahi van mis puños

Fa#

yo pego duro

Fa Fa# Fa Fa#

Bien no se, yo no se



MIb

Es mas que un juego

Si

gritan mi nombre

Fa#

Palabras necias

Fa Fa# Fa Fa#

sin valor, sin pasion



Como intro pero mas rapido:



Ultimo round, luchó

Ultimo round, luchó

Ultimo round, luchó

Ultimo round, knock out!



|-------------------|

|--/7-6-------------|

|--/8-6-8-6-4-------|

|-------9-8-6--8----|

|--------------9----|

|-------------------|

Letra subida por: Anónimo

Discos en los que aparece este acorde: Horcas , Horcas Vive

El acorde de Mano Dura de Horcas es una versión de la canción original realizada por colaboradores/usuarios de Coveralia.

¿Has encontrado algún error en esta página? Envíanos tu corrección del acorde