música
Buscador

Acorde de Mañana - Mikel Erentxun

Letra de Mañana

Para que todo suene igual que en el disco, habrá que poner una cejilla en el 4º traste...



G: 320033

Cadd9*: 032030

Cadd9: 032033

Mim: 022000

Re: 000232

Re9: 000230

Lam: 002210



Aquí he puesto las notas que van arpegiadas



G

E-|---3---------3---------3---------3-----------

B-|-----3---------3---------3---------3---------

G-|-------0---------0---------0---------0-------

D-|---------------------------------------------

A-|---------------------------------------------

E-|-3---------3--------3---------3--------------





Cadd9*

E-|---0---------0---------0---------0-----------

B-|-----3---------3---------3---------3---------

G-|-------0---------0---------0---------0-------

D-|---------------------------------------------

A-|-3----------3--------3---------3-------------

E-|---------------------------------------------





MIm

E-|---0---------0---------0---------0-----------

B-|-----0---------0---------0---------0---------

G-|-------0---------0---------0---------0-------

D-|---------------------------------------------

A-|-2---------2---------2---------2-------------

E-|---------------------------------------------



RE9

E-|---0---------0---------0---------0-----------

B-|-----2---------2---------2---------2---------

G-|-------3---------3---------3---------3-------

D-|-0---------0---------0---------0-------------

A-|---------------------------------------------

E-|---------------------------------------------







### INTRO ###

G Cadd9*





## Parte arpegiada (tocar las notas con los arpegios tal y como antes he descrito) ##



G

Desenfundo mis paralabras tan despacio como puedo

Cadd9*

Viéndote

G

Leo propaganda del sol sobre tu cuerpo

Cadd9*

Al atardecer

MIm

Aparcados muy cerca de un río

RE9

Que sonríe igual que tú



## Estribillo (tocar todo con acordes) ##



G RE

Quiero verte amanecer y verte anochecer

MIm

Si ayer y hoy nos dan la espalda

Cadd9

Como amantes que se van

G

Siempre quedará mañana,

MIm

La mañana de mañana,

LAm

Junto a tí

RE

Junto a tí





## Parte arpegiada (tocar las notas con los arpegios tal y como antes he descrito) ##



G

Cuando no sean noticia las canciones que escribí

Cadd9*

Pensando en tí

G

Cuando mi contestador esté vacío de gente que

http://www.coveralia.com/acordes/manana-mikel-erentxun.php

Cadd9

No me amo

MIm

Aparcado en el fondo de tus manos

RE9

Empiezo a vivir





## Estribillo (tocar todo con acordes) ##



G RE

Iremos a gastarnos unas cuantas noches más

MIm Cadd9

A las calles más oscuras y gastadas de Madrid

G

No he dudado ni un momento

MIm

Ni un solo momento

LAm

De tu amor

RE

De tu amor



G RE

Quiero verte amanecer y verte anochecer

MIm

Si ayer y hoy nos dan la espalda

Cadd9

Como amantes que se van

G

Siempre quedará mañana,

MIm

La mañana de mañana,

LAm

Junto a tí

RE

Junto a tí





### PUENTE (arpegiado) ###

G Cadd9*

G Cadd9*





## Parte arpegiada ##



G

Dejaré de hablar de cosas que no he conocido

Cadd9*

Ni conoceré

G

Dejaré de hablar más alto para hablar más claro

Cadd9*

De nosotros dos

MIm

Hay mucho más de mí en tí

RE9

De lo que queda dentro de mí





## Estribillo (tocar todo con acordes) ##



G RE

Iremos a gastarnos unas cuantas noches más

MIm Cadd9

A las calles más oscuras y gastadas de Madrid

G

No he dudado ni un momento

MIm

Ni un solo momento

LAm

De tu amor

RE

De tu amor



G RE

Quiero verte amanecer y verte anochecer

MIm

Si ayer y hoy nos dan la espalda

Cadd9

Como amantes que se van

G

Siempre quedará mañana,

MIm

La mañana de mañana,

LAm

Junto a tí

RE

Junto a tí

(arpegiado) G Cadd9.... hasta el final

Junto a tí

Letra subida por: Anónimo

Discos en los que aparece este acorde: Ciudades De Paso , Exitos , Tres Noches En El Victoria Eugenia

El acorde de Mañana de Mikel Erentxun es una versión de la canción original realizada por colaboradores/usuarios de Coveralia.

¿Has encontrado algún error en esta página? Envíanos tu corrección del acorde