música
Buscador

Acorde de Maldito Sea Tu Nombre - Angeles Del Infierno

Letra de Maldito Sea Tu Nombre

E----------------------------------------
B----------------------------------------
G----------------------------------------
D------7-----9-----10-----12-----10---9--
A--0-0---0-0---0-0----0-0----0-0----0----
E----------------------------------------


Am                 G   Am                        G   Am
Bien oculto en tu disfraz, en mis sueños siempre estas
               G   Am                G   Am
no lo puedo remediar, te deseo cada vez mas.
Am           G Am          Am            G Am     
Al principio todo era paz, y contigo llego la maldad.


Am                        G
Principe de las tinieblas 
Am                      G
con tu fuego arrazador
Am                 G    
asesino la historia 
Am        
de la humanidad.


F5             D5             E5              
Haces siempre lo que quieres sin tener piedad
F5           D5           E5           Am
Dios eterno todo lo haces a tu voluntad.


(RIFF. CORO)
E--------------------------------------
B--------------------------------------
G----------------------------------9/--
D----------------------------------7/--
A-3--3-1-------5--5-3------7-7-7-7-----
E-1------3-1---3------5-3--5-5-5-5-----
  F5           G5          A5
(coro)
F5       G5             A5
Maldito, Maldito sea tu nombre.



Letra subida por: Anónimo

El acorde de Maldito Sea Tu Nombre de Angeles Del Infierno es una versión de la canción original realizada por colaboradores/usuarios de Coveralia.

¿Has encontrado algún error en esta página? Envíanos tu corrección del acorde