música
Buscador

Acorde de Make It Right - Jonas Brothers

Letra de Make It Right

 (intro)  

E|-------------|-------------|------------------|

B|------3------|------3------|------3-------3---|

G|----0---0----|----0---0----|----0---0---0---0-|

D|-------------|-------------|------------------|

A|-------------|--2----------|--3---------------|

E|--3----------|-------------|------------------|



E|-------------|-------------|------------3-----|

B|------3------|------3------|------3-----3-----|

G|----0---0----|----0---0----|----0---0---0-----|

D|-------------|-------------|------------------|

A|-------------|--2----------|--3---------3-----|

E|--3----------|-------------|------------------|



G

They say you'll know

C9

When you really find the one

G

But it's hard to tell

C9

With the damage that's been done

G C9

But I'd like to say that it's your fault

But I know better

Am

'Cause I'm a fool to think

C9

You'd wait around forever





G Dsus C9

Maybe I could have loved you

G Dsus C9

Maybe I could have shown

G

That I still do care about you

Dsus C9

More than you could know

Am C9

Don't say it's too late to try

G

To make it right

C9 G C9

Oh, to make it right



G

I didn't know

C9

How good you were for me

G

Now it's clear

C9

I'm seeing all that we could be

G

And I know that it's my fault

C9

But I'm gonna treat you better

http://www.coveralia.com/acordes/make-it-right-jonas-brothers.php

Am

'Cause if I had one wish

C9

You'd be with me forever



G Dsus C9

Maybe I could have loved you

G Dsus C9

Maybe I could have shown

G

That I still do care about you

Dsus C9

More than you could know

Am C9

Don't say it's too late to try

G

To make it right



C9

Is there something I could say?

G

Show me how to break it down

C9

So before you walk away

G

Take the time to turn around

D

Listen to me now



G Dsus C9

Maybe I could have loved you

G Dsus C9

Maybe I could have shown

G

That I still do care about you

Dsus C9

More than you could know

Am C9

Don't say it's too late to try

G Dsus C9

Maybe I could have loved you

G Dsus C9

Maybe I could have shown

G

That I still do care about you

Dsus C9

More than you could know

Am C9

Don't say it's too late to try

G C9

To make it right

G C9

To make it right

G C9

Make it right

G C9

Gonna make it right

Letra subida por: Anónimo

Discos en los que aparece este acorde: Jonas L.a.

El acorde de Make It Right de Jonas Brothers es una versión de la canción original realizada por colaboradores/usuarios de Coveralia.

¿Has encontrado algún error en esta página? Envíanos tu corrección del acorde