música
Buscador

Acorde de Love -> Building On Fire - Talking Heads

Letra de Love -> Building On Fire

 



Intro: (Riff A)

e|--------- -----------3-------3---

B|----7---10---7-------3-------3---

G|7---7---7 ---7---4-4-4-4-4-4-4-4-

D|7-7-7-7-7 -7-7-7-0-------0-------

A|--------- -----------------------

E|--------- -----------------------



(Riff B):

e|- ---- -14---- -- ---- ---- -15---- -- -

B|- ---15-- ---15-- ---- ---15-- ---15-- -

G|14---- -- ---- -14---16---- -- ---- -16-

D|- ---- -- ---- -- ---- ---- -- ---- -- -

A|- ---- -- ---- -- ---- ---- -- ---- -- -

E|- ---- -- ---- -- ---- ---- -- ---- -- -



Bridge melody:

(F C C G )

e|1-0-1---0-----------------0---3---8---7-5-7-3-

B|1-1-1---1-----3-1---------1---3---8---------3-

G|--------------0-0-----------------------------

D|----------------------------------------------

A|----------------------------------------------

E|----------------------------------------------



(Riff A)



(muted)

D G

When my love

D G

Stands next to your love,

D G

I can't compare love

D G

When it's not love.



(let chords ring)

D G

It's not love.

D G

It's not love.

D G

Which is my face,

D G

Which is a building,



(Riff B)

D G

Which is on fire.

D G

On fire...



D G

When my love

D G

Stands next to your love,

D G

I can't define love

D G

When it's not love.



http://www.coveralia.com/acordes/love-->-building-on-fire-talking-heads.php

D G

It's not love.

D G

It's not love.

D G

Which is my face,

D G

Which is a building,

D G

Which is on fire.



(Bridge)



(Riff C)



F C C G

F C C G



D G

D G



D G

I've got two loves

D G

I've got two loves

D G

And they go tweet, tweet, tweet, tweet, tweet, like little birds

D G

They're my two loves...

D G

And they go tweet, tweet, tweet, tweet, tweet, like little birds

D G

They're my two loves...

D G

Count them one, two loves...



D G

Which is my face

D G

Which is a building

D G (Riff B)

Which is on fire





D G

When my love

D G

Stands next to your love,

D G

I can't define love

D G

When it's not love.

D G

It's not love.

D G

It's not love.

D G

Which is my face,

D G

Which is a building,

D7

Which is on fire.

Letra subida por: Anónimo

Discos en los que aparece este acorde: The Best Of Talking Heads

El acorde de Love -> Building On Fire de Talking Heads es una versión de la canción original realizada por colaboradores/usuarios de Coveralia.

¿Has encontrado algún error en esta página? Envíanos tu corrección del acorde