música
Buscador

Acorde de Los Barcos - Gepe

Letra de Los Barcos

Capo en el 5 espacio.



Intro:



Fmaj7* C/G* Gmaj7* B/F7*-Em/F*

e[--0---------------0--------------------------------------------------]

B[-----1--------1------1----------1--3--------------1--3-----------3---]

G[-------2---------------0--------------2-----------------0--------0---]

D[--3---------------2---------------------3---------3-------2----------]

A[-----------------------------------3-----------------2-----------2---]

E[---------3-0--------------3-0--------------3-0--------------3-0------]





e[--------------------]

B[--------------------]

G[--------------------]

D[--------------------]

A[--------------------]

E[---3--0-------------]





Fmaj7/DO* - C/G* (x2)





Fmaj7/DO*

Es como morirse de miedo

C/G*

por algo

Fmaj7/DO*

poner el brazo al frente

C/G*

y el otro al lado

Em/F*

no me hablas

Fmaj7/DO*

no te hablo

Em/F*

bien sencillo huuuuu.





Fmaj7/DO*

Es como morirse de pena

C/G*

por algo también

http://www.coveralia.com/acordes/los-barcos-gepe.php

Fmaj7/DO* C/G*

comer la sal y el azúcar al mismo tiempo

Em/F*

si me hablas

Fmaj7/DO*

yo te hablo





Em/F*

porque me muero, hooo...

Fmaj7/DO* Em/F*

me muero de entusiasmo



Fmaj7/DO* C/G*

de entusiaaaaaaaaaasmo...



G[--2---]

D[--5---] (al unísono 3° y 4° cuerda)





De saber lo que es

y lo que se dice cuando me muero

de entusiasmo, de entusiasmo... Fmaj7/do*





Fmaj7/DO* Em/F* Fmaj7/DO*

Los barcos se van y vienen acá

Em/F*

disfrutan la orilla y luego se van.







Acordes : 654321



Fmaj7* : 303210

Gmaj7* : 033230

Em/F* : 322030

B/F7* : 003010

Fmaj7/do* : 033210

C/G* : 332010







Letra subida por: Anónimo

Discos en los que aparece este acorde: Gepinto

El acorde de Los Barcos de Gepe es una versión de la canción original realizada por colaboradores/usuarios de Coveralia.

¿Has encontrado algún error en esta página? Envíanos tu corrección del acorde