música
Buscador

Acorde de Look Inside America - Blur

Letra de Look Inside America



G D/F# Em Em7/D

Good morning, lethargy



F C/G Am

Drink Pepsi, it's good for energy



G D/F# Em Em7/D

The bath's on, smoke in the bedroom



F C/G Am

Sore throat, and on my neck a nasty bruise



D

And where it came from well I don't know



C B5 A5

But we played last night, it was a good show



G D/F# Em Em7/D

Got to play a second rate chat show



F C/G Am

A nationwide deal, so we gotta go



G D/F# Em Em7/D

Chuck from the Company says it'll be alright



F C/G Am

Got an ad on KROQ and there's an in-store tonight



D

Well I build things up, never let them go



C B5 A5

Got to get time share on the radio





G F

Look inside America



C/G Dadd4

She's alright, she's alright



Eb Bb

Sitting out in the distance



Eb C# D

But I'm not trying to make her mine



G F

Looking for America



C/G Dadd4

With its kooky nights and its suicides



Eb Bb

TV says its alright



Eb C# D

Cos everybody's hung up on something or other





G D/F# Em Em7/D

Stepping off in twenty so the driver says



F C/G Am

I should sleep tonight but I think I'll watch videos instead



G D/F# Em Em7/D

Annie Hall leaves New York in the end



F C/G Am

Press rewind and Woody gets her back again



D

And the whole world could have passed through me



C B5 A5

But I don't know that it means much to me





http://www.coveralia.com/acordes/look-inside-america-blur.php

G F

LOOK INSIDE AMERICA



C/G Dadd4

She's alright, she's alright



Eb Bb

Sitting out in the distance



Eb C# D

But I'm not trying to make her mine



G F

Looking for America



C/G Dadd4

With its kooky nights and its suicides



Eb Bb

TV says its alright



Eb C# D

Cos everybody's strung out on something or other



E---------------------------------------------------|

B---------------------------------------------------|

G---5--4--4--4--4--4--4-2-/6--6--6--6--6--6--6--6--|

D---------------------------------------------------|

A---------------------------------------------------|

E---------------------------------------------------|





E---7--5--3---5--3--0---/3--------------|

B------------------------------1--3--5^-|

G---------------------------0-----------|

D---------------------------------------|

A---------------------------------------|

E---------------------------------------|





E---------------------------------------------------|

B---------------------------------------------------|

G---5--4--4--4--4--4--4-2-/6--6--6--6--6--6--6--6--|

D---------------------------------------------------|

A---------------------------------------------------|

E---------------------------------------------------|



E---7-----------------5-----5-----5--------5-----5-----5----|

B------------------3-----3-----3-----3--------3-----3-------|

G------2-----2--2-------------------------------------------|

D-----------------------------------------------------------|

A-----------------------------------------------------------|

E-----------------------------------------------------------|





E---7-----0-----0--3-----3--3--3-----------3--3--3------3-2--|

B----------------------------------------------------------3--|

G------2-----0--------0-----------0--0--0-----------0------2--|

D-------------------------------------------------------------|

A-------------------------------------------------------------|

E-------------------------------------------------------------|



D

And the whole world could have passed through me



C B5 A5

But I don't know that it means much to me





G F C/G Dadd4 (3x)



G F B5 A5



Dadd4 - x

3

0

4

5

x





Letra subida por: Anónimo

Discos en los que aparece este acorde: Blur

El acorde de Look Inside America de Blur es una versión de la canción original realizada por colaboradores/usuarios de Coveralia.

¿Has encontrado algún error en esta página? Envíanos tu corrección del acorde