música
Buscador

Acorde de Locuras - Mikel Erentxun

Letra de Locuras

____ acordes ______

| |

| A#: 113331 |

| D#: XX1343 |

| F: 133211 |

| D: 000232 |

| Gm: 355333 |

| C: 032010 |

|_________________|





A# D# F

A# D# F



A#

Te abrazaba

D# F A#

en la curva anterior a las estrellas

D# F A#

mientras les pedíamos cualquier deseo

D# F A# D# F

que tuviésemos prohibido pedir.



A#

Aún me veo

D# F A#

subiendo al Fverest de tu mirada,

D# F A#

donde el frío era siempre menos frío

D# F A# D# F

y el calor era la suma de los dos.



D Gm

Pero hay locuras que no tienen vuelta atrás

C D# F

y otras locuras que te hacen avanzar.



A#

Aún me duele

D# F A#

si escucho el dolor de tu silencio,

D# F A#

si pienso que siempre habrá un desierto

D# F A# D# F

que nos cuesta demasiado atravesar.





[solo]:

A# D# F

F-||----------|----------------------|----------------------|

B-||----------|--------------------3-|----------------------|

G-||------3-5-|5s7--------5-3-5--5---|3------5s7s5----------|

D-||--3-5-----|----------------------|----------------------|

A-||----------|----------------------|----------------------|

F-||----------|----------------------|----------------------|



A# D# F

F-||----------------1s3s1s3------1--1-----------|

B-||------------6---3s4s3s4------3--1-----------|

G-||----3---5s7---3------|------------------3h5-|

D-||3-5------------------|--------------3h5-----|

A-||---------------------|----------------------|

F-||---------------------|----------------------|



A# D# F

F-||---------------------|----------------------|

B-||1h3----4-3-1--3s4s3-1|--------1--------1--3-|

G-||---------------------|3---------3s2s3-------|

D-||---------------------|----------------------|

A-||---------------------|----------------------|

F-||---------------------|----------------------|

http://www.coveralia.com/acordes/locuras-mikel-erentxun.php





A# D# F

F-||---------------------|----------------------|

B-||---3h4-4s6--4-3------|---4---3-----------1--|

G-||----------------5-3--|----------3h5--2------|

D-||--------------------3h5----------------3----|

A-||---------------------|----------------------|

F-||---------------------|----------------------|





A#

He pensado

D# F A#

en todo lo que queda por amarte,

D# F A#

en todo lo que tú nunca sabrías

D# F A# D# F

si esta fuese mi última canción.



D Gm

Pero hay locuras que no tienen curación

C D# F

y otras locuras que te curan de una vez.



A#

Y siempre tú

D# F A#

has sido mi orientación,

D# F A#

la armadura de mi corazón,

D# F A#

la locura que me dió la salvación,

D# F A#

la locura que me da la salvación,

D# F A#

la locura que me dará la salvación,

D# F A#

Oh, hey, lara lara la la-a, la lara lai

D# F A#

Lara lara la la-a, la lara lai

D# F A#

Lara lara la la-a, la lara lai

D# F A#

Lara lara la la-a, la lara lai

D# F A#

Lara lara la la-a, la lara lai

D# F A#

Lara lara la la-a, la lara lai

D# F A#

Lara lara la la-a, la lara lai







____________________________________________________

| [para tocar con cejilla en el 1er traste, |

| sustituir los acordes:] |

| A#: 113331 por A: 002220 |

| D#: XX1343 por D: 000232 |

| F: 133211 por F: 022100 |

| D: 000232 por C#: 446664 |

| Gm: 355333 por F#m: 244222 |

| C: 032010 por B: 224442 |

| |

| y tener en cuenta que en el solo la notas son |

| una unidad menos (un semitono más bajo) |

|__________________________________________________|





Letra subida por: Anónimo

Discos en los que aparece este acorde: El Corredor De La Suerte

El acorde de Locuras de Mikel Erentxun es una versión de la canción original realizada por colaboradores/usuarios de Coveralia.

¿Has encontrado algún error en esta página? Envíanos tu corrección del acorde