música
Buscador

Acorde de Local Boy In The Photograph - Stereophonics

Letra de Local Boy In The Photograph

e-10------10--------8------8----------|

B---7-8-----7-8------7-8----7-8-------|





e--------------------------------------|

B------3------3------------------------|

G----2------2----------0------0--------|

D--0------0----------0------0------0---|

A------------------3------2------0-----|

E--------------------------------------|



G Bm C

Theres no mistake, i smell that smell, its that time of year

G Bm C

again, i can taste the air

G Bm C

Clock goes back, railway track, something blocks the line

G Bm C

again, and the train runs late for the first time



G, Bm, C



G Bm C

A pebal beach, underneath, pier just been painted

G Bm C

red, where i heard the news for the first time





e--0----------------------------------0------|

B--1----------------------------------3------|

http://www.coveralia.com/acordes/local-boy-in-the-photograph-stereophonics.php

G--0----------------------------------2------|

D--2----------------------------------0------|

A--------------------------------------------|

E--------------------------------------------|



and all the friends lay down the flowers



e-----------------0-------0------------------|

B-------------------3-----1------------------|

G-------------------------0------------------|

D-------------------------2------------------|

A-------------------------3------------------|

E--------------------------------------------|



sit on the banks and drink for hours



talk of the way they saw last



e--------------------------------------------|

B--------------------------------------------|

G--------------------------------------------|

D--------------------------------------------|

A---3-2-3-2-3-2-3-2--------------------------|

E--------------------------------------------|









Letra subida por: Anónimo

El acorde de Local Boy In The Photograph de Stereophonics es una versión de la canción original realizada por colaboradores/usuarios de Coveralia.

¿Has encontrado algún error en esta página? Envíanos tu corrección del acorde