música
Buscador

Acorde de Llamada - Miguel Gallardo

INTRO





Em Esus4-Em Esus4-Em Bm7 Em7 D Em7 D



e --0-------5-7----7-5-------2---------5--5-------

B --0---8--------------8-----3----7--8-------8-7--

G --0------------------------2--------------------

D --2------------------------4--------------------

A --2------------------------2--------------------

E --0---------------------------------------------



F# F#7 F#m7 F#7 F#m7 Bm Bsus4 Bm



e --2------------------------2------2----2---2-----

B --2---5---7-8---8-7--5-----3----3---3--5---3-----

G --3------------------------4--4--------4---4-----

D --4------------------------4-----------2---4-----

A --4------------------------2-----------2---2-----

E --2----------------------------------------------





VERSO





F#m Bm Em - G

Te conocí un día diferente

A Esus4 Em D F#m

y decidí quererte sin pensar.

Bm D Em7 - G

despues te vi perderte entre la gente

F# C#7 F# Bm7

y no volví a verte nunca mas.



F#m Bm Em - G

Voy por ahí en busca de tus huellas

A Esus4 Em D F#m

por si el amor las puede descubrir.

Bm D Em - G

Pero se ve que tengo mala estrella

F# C#7 Bm F# Bm

porque a la vez te tuve y te perdí.





CORO



C#7-Bm - Em7 Bm A

Una sonrisa, dos ojos de cielo,

Esus4 - A - D Dsus2 Bm

tres bromas de esas que rompen el hielo,

Bm7 C#m7 G F# F#sus4 F#7 Bm B

cuatro semanas y cinco promesas me acercan a ti...



Em Bm Em Bm A

Seis rosas secas y siete poemas,

Esus4 - A - D Dsus2 Bm

ocho preguntas que nadie contesta

Bm7 C#m7 G F# F#sus4 Em

nueve secretos y diez cartas rotas me alejan de ti.





http://www.coveralia.com/acordes/llamada-miguel-gallardo.php

INTRO





Em Esus4-Em Esus4-Em Bm7 Em7 D Em7 D



e --0-------5-7----7-5-------2---------5--5-------

B --0---8--------------8-----3----7--8-------8-7--

G --0------------------------2--------------------

D --2------------------------4--------------------

A --2------------------------2--------------------

E --0---------------------------------------------



F# F#7 F#m7 F#7 F#m7 Bm Bsus4 Bm



e --2------------------------2------2----2---2-----

B --2---5---7-8---8-7--5-----3----3---3--5---3-----

G --3------------------------4--4--------4---4-----

D --4------------------------4-----------2---4-----

A --4------------------------2-----------2---2-----

E --2----------------------------------------------





VERSO



F#m Bm Em - G

Si alguna vez te sientes atrapada,

A Esus4 Em D F#m

si alguna vez oyes esta canción

Bm D Em7 - G

acuérdate de que es una llamada

F# C#7 F# Bm7

de un corazón a otro corazón.



F#m Bm Em - G

Voy por ahí en busca de tus huellas

A Esus4 Em D F#m

por si el amor las puede descubrir.

Bm D Em - G

Pero se ve que tengo mala estrella

F# C#7 Bm F# Bm

porque a la vez te tuve y te perdí.





CORO



C#7-Bm - Em7 Bm A

Una sonrisa, dos ojos de cielo,

Esus4 - A - D Dsus2 Bm

tres bromas de esas que rompen el hielo,

Bm7 C#m7 G F# F#sus4 F#7 Bm B

cuatro semanas y cinco promesas me acercan a ti...



Em Bm Em Bm A

Seis rosas secas y siete poemas,

Esus4 - A - D Dsus2 Bm

ocho preguntas que nadie contesta

Bm7 C#m7 G F# F#sus4 F#7 Bm B

nueve secretos y diez cartas rotas me alejan de ti.



(bis)

Letra subida por: Anónimo

Discos en los que aparece este acorde: Corazon Viajero , 20 Autenticos Exitos Originales

El acorde de Llamada de Miguel Gallardo es una versión de la canción original realizada por colaboradores/usuarios de Coveralia.

¿Has encontrado algún error en esta página? Envíanos tu corrección del acorde