música
Buscador

Acorde de Límites - Callejeros

Letra de Límites

{INTRO} 



e|-----------------------------------------------------

B|-----------------------------------------------------

G|-----------------------------------------------------

D|------------------5-6-7------------------------5-6-7-

A|--5-7-8-7-5--5-6-7-------------5-7-8-7-5--5-6-7------

E|-5----------------------3-4-5-5----------------------





e|--------------------------------------------

B|--------------------------------------------

G|--------------------------------------------

D|--------------------------------------------

A|--------------------------------------------

E|-3-4-5-4--3-5-6-8-10-8-6-8--1-3-5-6-8-6-5-6-



A# A Dm

e|-6-6--5-5-------------|

B|-6-6--5-5--8-55-6-5-3-|

G|-7-7--6-6-------------|

D|-8-8--7-7-------------|

A|-8-8--7-7-------------|

E|-6-6--5-5-------------|





{VERSO}



Dm Gm A

Entre "canciones de duda" y la calle hambrienta

Dm Gm A (Am-G#m)

por ese limite la vida siempre irá

Gm Dm

y viendo como mi cordura y locura se enfrentan sin cesar

A# Gm A Dm-A-Dm

hacia algun lado, algun dia esta vida se inclinara



e|-5-3---------|

B|-----6-6-5-3-|

G|-------------|

D|-------------|

A|-------------|

E|-------------|





Dm Gm A

Entre lo que te toca y lo que te dejen hacer

Dm Gm A (A-G#)

por ese limite, la vida siempre irá

Gm Dm

La boca de una mujer ajena, matarte o salir a matar,

A# Gm A#

ser pobre, ser rico, crecer en la calle o crecer para el vicio

A Gm F E Dm

es que muchos se van cayendo sin caminar



{SOLO} En Base al verso





e|--101010--12-13-12-10-9-10---------------------------------

B|---------------------------10--11---10----------------10---

G|----------------------------------12---10-12--9-10-12----9-

D|-----------------------------------------------------------

A|-----------------------------------------------------------

http://www.coveralia.com/acordes/limites-callejeros.php

E|-----------------------------------------------------------



e|-10-101010-9-10-9-10-9-10-13----17-15--17-15-13-10-9-10-9-----

B|------------------------------15-----15------------------10-9-

G|--------------------------------------------------------------

D|--------------------------------------------------------------

A|--------------------------------------------------------------

E|--------------------------------------------------------------



e|-------------------|

B|-9-9h10------------|

G|--------12-10-9-7~-|

D|-------------------|

A|-------------------|

E|-------------------|





{ESTRIBILLO}



A# A F Gm

El silencio del campo, o el ruido de la ciudad

A# A

no van a bastar para que encuentres

F Gm

todo aquello lo que necesitas

Dm Gm

Hay muchos limites alla afuera

A# A

y hay otros, mucho peores

A Dm

en lo mas hondo de tu verdad



{VERSO}



Cuanta gilada mas va a ensuciar tu alma?

helada y en llamas, tu cuerda se va a cortar

no existe ningun purgatorio las cuentas las vas a rendir aca

A# Gm

ya no habra nada mas que tu cara

A Dm

y el ultimo limite para cruzar

A# A

cuanta gilada mas?



{ESTRIBILLO}



El silencio del campo,o el ruido de la ciudad,

no van a bastar para que encuentres

todo aquello lo que necesitás.

Hay muchos límites allá afuera

y hay otros, mucho peores

en lo mas hondo de tu verdad



Dm

e|-5-3----------|

B|-----6--------|

G|--------5-6-7-|

D|--------------|

A|--------------|

E|--------------|







Letra subida por: Anónimo

Discos en los que aparece este acorde: Señales

El acorde de Límites de Callejeros es una versión de la canción original realizada por colaboradores/usuarios de Coveralia.

¿Has encontrado algún error en esta página? Envíanos tu corrección del acorde