música
Buscador

Acorde de Life Goes On - Poison

Letra de Life Goes On

Afinação:{Eb}  





Entrada:

E|-------------15-15-15-15-15-14-14--12-12----------|

B|--12-14-1415-------------------------------------|

G|--------------------------------------------------|

D|--------------------------------------------------|

A|--------------------------------------------------|

E|--------------------------------------------------|



E|--15-15-15-15-15-14-14-12-12h14--1517-15-14-12---|

B|--------------------------------------------------|

G|--------------------------------------------------|

D|--------------------------------------------------|

A|--------------------------------------------------|

E|--------------------------------------------------|



E|--15-15-15-15-15-14-14--12-12---------------------|

B|--------------------------------------------------|

G|--------------------------------------------------|

D|--------------------------------------------------|

A|--------------------------------------------------|

E|--------------------------------------------------|



E|--15-15-15-15-1517-15-14-12-12h14-12-12-12-12/10-|

B|--------------------------------------------------|

G|--------------------------------------------------|

D|--------------------------------------------------|

A|--------------------------------------------------|

E|--------------------------------------------------|



E|-10-10-10-10/9-9-9-9-9/7-7-9-9h10-----------------|

B|--------------------------------------------------|

G|--------------------------------------------------|

D|--------------------------------------------------|

A|--------------------------------------------------|

E|--------------------------------------------------|



Bm A G A

I felt this before now I feel it again

Bm A G F#

No matter how hard I try this feeling won't end

Em G A G F# E G A

So I pretend you're here by my side tonight, on this lonelyride



I keep telling myself that.





(Chorus)

D A Bm

Life goes on while you're miles away



http://www.coveralia.com/acordes/life-goes-on-poison.php



A G

And I need you.



D A Bm

Time rolls on as nights steals the day

A G

There's nothing I can do.



Bm

You healed up my wounds

A G A

I tasted your tears

Bm

you spilled out your heart

A G F#

So I let out my fears

Em G A G F#

But one fear I kept to myself

Em G A

How I prayed that you love no one else



Like you said you love me.



(chorus)

Em A Bm A G

If you only knew how much I miss you.



(SOLO)



Em G A G F#

When my mind plays its tricks on me

Em G A

It shows me things I don't wanna see

A

So I tell myself and..

A

I keep telling myself self now

A

Just take another piece of me?



(chorus)

D A Bm

Love goes on you're still miles away

A G

And I need you

E A Bm

And this last mile I travel with you







Letra subida por: Anónimo

El acorde de Life Goes On de Poison es una versión de la canción original realizada por colaboradores/usuarios de Coveralia.

¿Has encontrado algún error en esta página? Envíanos tu corrección del acorde