música
Buscador

Acorde de Lettre Au Père-Noël - Patrick Bruel

Letra de Lettre Au Père-Noël

Tonalité :  	A 	|	A# 	|	B 	|	C 	|	C# 	|	D 	|	D# 	|	E 	|	F 	|	F# 	|	G 	|	G# 	|	A





Intro : | Dm Dm9 | Dm Dm9 | Dm Dm9 | Dm Dm9 |





Dm Dm9 Dm/C Bbmaj7(#11)

Une lettre au Père Noël Que tu écris de mes mains

A7/4 Am7 Em7/B A7/C#

Et une jolie aquarelle Pour lui montrer le chemin

Dm Dm9

Tes tous petits bras s'agitent

Dm/C Bbmaj7(#11)

Pour me dire d'écrire plus vite

A7/4 Am7 Em7/B A7/C#

Que le traîneau va partir Que les lutins doivent dormir

Gm Dm/F

Tu veux un bus, un tamtam Un hibou qui parle anglais

A7/E Dm Dm9/F

Et des chaussures pour la dame Qui vit dehors toute l'année

Gm Dm/F

Un coeur neuf pour papy Ben Que Louise te fasse un baiser

A7/E D7/4 D7

Des mercredi sans sirènes Voir le pays où je suis né





G C/E D/F# D7

La vie tourne comme un remue-manège

Gm Eb F/A Fm7/Ab

Et les lettres viennent mourir dans la neige

Gm Gm7/F C/E Cm/Eb D7/4 D7

Et sous tes rêves, il y a parfois des pièges

G C/E D/F# D7

La vie tourne et détourne le manège

Gm Eb F/A Fm7/Ab

Mais voilà, tout l'monde n'a pas son siège

Gm Gm7/F C/E Cm/Eb D7/4 D7

Comment on monte? Et comment on s'protège?





| Dm Dm9 | Dm Dm9 |





Dm Dm9 Dm/C Bbmaj7(#11)

Pour Loïc, un pull qui pique Léon, un accordéon

A7/4 Am7 Em7/B A7/C#

Et puis un train électrique Et des chagrins qui s'en vont

Dm Dm9 Dm/C Bbmaj7(#11)

Moins de gens qui se chamaillent Moins d'oiseaux en robe noire

A7/4 Am7 Em7/B A7/C#

Des polochons pour champs de bataille Et des bonbons pour la mémoire

Gm Dm/F

Des poésies qui se retiennent Et que mon copain revienne

A7/E Dm Dm9/F

Qu'il ait des cheveux, qu'on rigole Sans lui, j'm'ennuie à l'école

Gm Dm/F

Pourquoi la vie, ça s'arrête? Est-ce que l'amour, ça se prête?

http://www.coveralia.com/acordes/lettre-au-pere-noel-patrick-bruel.php

A7/E D7/4 D7

Est-ce que la terre tourne bien ronde? Les cadeaux dis c'est pour tout l'monde?





G C/E D/F# D7

La vie tourne comme un remue-manège

Gm Eb F/A Fm7/Ab

Et les lettres viennent mourir dans la neige

Gm Gm7/F C/E Cm/Eb D7/4 D7

Et sous tes rêves, il y a parfois des pièges

G C/E D/F# D7

La vie tourne et détourne le manège

Gm Eb F/A Fm7/Ab

Mais voilà, tout l'monde n'a pas son siège

Gm Gm7/F C/E Cm/Eb D7/4 D7

Comment on monte? Et comment on s'protège?





Dm Dm9 Dm/C Bbmaj7(#11)

Ta petite lettre me réveille Des mots qu'on n'entendait plus

A7/4 Am7 Em7/B A7/C#

Et des boules de neige fondues Coulent de mes yeux, vers ton

Dm Dm9 Dm Dm9 Dm

ciel...





Intro :

Dm Dm9 Dm Dm9

E||--1--1--1--1--0--0--1--0--|--1--1--1--1--0--0--1--0--||

B||--3--3--3--3--3--3--3--3--|--3--3--3--3--3--3--3--3--||

G||*-2--2--2--2--2--2--2--2--|--2--2--2--2--2--2--2--2-*||

D||*-0-----------0-----------|--0-----------0----------*||

A||--------------------------|--------------------------||

E||--------------------------|--------------------------||





Couplet :

Dm Dm9 Dm/C Bbmaj7(#11)

||--1--1--1--1--0--0--1--0--|--1--1--1--1--0--0--0--0--|

||--3--3--3--3--3--3--3--3--|--3--3--3--3--3--3--3--3--|

||*-2--2--2--2--2--2--2--2--|--2--2--2--2--2--2--2--2--|

||*-0-----------0-----------|--------------3--3--3--3--|

||--------------------------|--3-----------1 ----------|

||--------------------------|--------------------------|





A7/4 Am7 Em7/B A7/C#

|--0--0--0--0--0--0--0--0--|--0--0--0--0--0--0--0--0--||

|--3--3--3--3--1--1--1--1--|--3--3--3--3--2--2--2--2--||

|--0--0--0--0--0--0--0--0--|--0--0--0--0--0--0--0--0-*||

|--2--2--2--2--2--2--2--2--|--0--0--0--0--2--2--2--2-*||

|--0-----------0-----------|--2-----------4-----------||

|--------------------------|--------------------------||





Discos en los que aparece este acorde: Des Souvenirs Devant , Best Of Patrick Bruel

El acorde de Lettre Au Père-Noël de Patrick Bruel es una versión de la canción original realizada por colaboradores/usuarios de Coveralia.

¿Has encontrado algún error en esta página? Envíanos tu corrección del acorde