música
Buscador

Acorde de Learning How To Love You - George Harrison

Letra de Learning How To Love You

4

Capo 4



Intro: F#m7 Fm7 Em7 Eb7(9+)



Verse:1



A7 D Dmaj7 D7

While all is still in the night

Am Am7

And silence starts its flow

D7 G

Become or disbelieve me

F#m F#m7

Left alone with my heart

Em7 Eb7(9+)

I'm learning how to love you



Verse:2



D Dmaj7 D7

While waiting on the Light

Am Am7

How patience learned to grow

D7 G

Endeavor could relieve me

F#m F#m7

Left alone with my heart

Fm7 Em7 Eb7(9+)

I----know that I can love you



Bridge:1



Em9 Em Em9 Em

Love you like you may have never been

Cmaj9 C Cmaj9 C

Move you more ways than you have seen

Am7

To a point in the time where we see so much more

Cm7

Than the ground that we touch

Em7 A9

With each step so unsure



Verse:3



A7 D Dmaj7 D7

As teardrops cloud the sight

Am Am7

Your eyes may ne----ver know

D7 G

No truth could e----ver fear me

F#m F#m7

http://www.coveralia.com/acordes/learning-how-to-love-you-george-harrison.php

Left alone with my heart

Em7 Eb7(9+)

I'm learning how to love you



Solo:



E|------------------9-11-9----9-9/16-13/9---9-11-11h12p11-9-------------9-------9-11-11/12-11-9-8|

B|----7-9-9/11-9-11--------11-------------9----------------11-9----9-11---11--9------------------|

G|6h8-----------------------------------------------------------11-------------------------------|

D|-----------------------------------------------------------------------------------------------|

A|-----------------------------------------------------------------------------------------------|

E|-----------------------------------------------------------------------------------------------|



E|------------8-7--------12-11-9--------------9-------12-9---------------------------------------|

B|9-7-5-7-7/9-----99--/9---------11-9-7-5-7-9---11-11------11-9-7-5-12-12------------------------|

G|-----------------------------------------------------------------------------------------------|

D|-----------------------------------------------------------------------------------------------|

A|-----------------------------------------------------------------------------------------------|

E|-----------------------------------------------------------------------------------------------|



E|------------------7/9----9-9/11-13/9-9-16------------9------10---------------------------------|

B|----7-9-9/11-9-11-----11--------------------7-9-9/11---11-7----6-------------------------------|

G|6/8---------------------------------------8----------------------------------------------------|

D|-----------------------------------------------------------------------------------------------|

A|-----------------------------------------------------------------------------------------------|

E|-----------------------------------------------------------------------------------------------|



Bridge 2:

Em9 Em Em9 Em

Love you like you may have never seen

Cmaj9 C Cmaj9 C

Move you more ways than you have been

Am7

To a point in the time where we see so much more

Cm7

Than the ground that we touch

Em7 A9

With each step so unsure



Verse:3 (Repeated)



A7 D Dmaj7 D7

As teardrops cloud the sight

Am Am7

Your eyes may ne----ver know

D7 G

No truth could e----ver fear me

F#m F#m7

Left alone with my heart

Em7 Eb7(9+) G#7 Gmaj7 Dmaj7

I'm learning how to love you-----

Letra subida por: Anónimo

Discos en los que aparece este acorde: Thirty Three & 1 3 (2004) , Thirty Three & 1/3

El acorde de Learning How To Love You de George Harrison es una versión de la canción original realizada por colaboradores/usuarios de Coveralia.

¿Has encontrado algún error en esta página? Envíanos tu corrección del acorde